Guitaretab - guitar tabs
Song name
# A B C D E F G H I J K L M N O P Q R S T U V W X Y Z

Misc Unsigned Bands - Sacred Soul - Deathknight tab

----------------------------------------------------------------------------
			 Deathknight - Sacred Soul
----------------------------------------------------------------------------
Tabbed by: -God-Of-Rock-
Email: littledrummerboy_07@hotmail.com

Tuning: Drop D (DADGBE)
HEAVILY DISTORTED
Intro Riff:
GUITAR 1: (Rythmn)
e|----------------------------------| x4
B|----------------------------------|
G|----------------------------------|
D|----------------------------------|
A|--0-0-2-3-0-0-3-2-0-0-2-3-5-7-5-3-|
D|--0-0-2-3-0-0-3-2-0-0-2-3-5-7-5-3-|
(Open Notes are Palm Muted Here) ^
GUITAR 2: (Lead)  -FILL- (Every second time through Intro Riff)
e|--------------| e|---------|
B|--------------| B|---------|
G|--------------| G|---------|
D|--------------| D|---------|
A|--0-(let ring)| A|--5---3--|
D|--0-----------| D|--5---3--|

Verse:
BOTH GUITARS: (palm muted Open Notes)
e|---------------------------------------------------------|
B|---------------------------------------------------------|
G|---------------------------------------------------------|
D|---------------------------------------------------------|
A|-0-0-0-0-0-0-0-0-0-0-0-0-0-0-0-0-7-0-0-5-0-0-3-0-0-5-8-7-|
D|-0-0-0-0-0-0-0-0-0-0-0-0-0-0-0-0-7-0-0-5-0-0-3-0-0-5-8-7-|
(Open Notes 16 times then ---------^>
[ Tab from: http://www.guitaretab.com/m/misc-unsigned-bands/116832.html ]
Verse Part 2:
(Rythmn keeps palm muted open notes)
GUITAR 2 (Lead)
e|----------------------------------------------------------------| x2
B|----------------------------------------------------------------|
G|----------------------------------------------------------------|
D|----------------------------------------------------------------|
A|-0-0-8-7-0-0-7-5-0-0-2-3-0-0-3-2-0-0-8-7-0-0-5-7-0-0-2-3-2-3-2~~|
D|-0-0-8-7-0-0-7-5-0-0-2-3-0-0-3-2-0-0-8-7-0-0-5-7-0-0-2-3-2-3-2~~|
-FILL- (end part of repeat)
e|--------------|
B|--------------|
G|--------------|
D|--------------|
A|--2-3-2-3-5-3-|
D|--2-3-2-3-5-3-|

BRIDGE:
BOTH GUITARS
(open notes palm muted)
e|-------------------------------------------------|
B|-------------------------------------------------|
G|-------------------------------------------------|
D|-------------------------------------------------|
A|--7-000-3-000-5-000-7-8-7--7-000-3-000-5-000-3-2-|
D|--7-000-3-000-5-000-7-8-7--7-000-3-000-5-000-3-2-|
BRIDGE PART 2
e|------------------------------------------------|
B|------------------------------------------------|
G|------------------------------------------------|
D|------------------------------------------------|
A|--7-000-3-000-5-000-7-8-7--7-000-3-000-2-22-1-11|
D|--7-000-3-000-5-000-7-8-7--7-000-3-000-2-22-1-11|

CHORUS: x2
BOTH GUITARS:
e|------------------------------------------------------------|
B|------------------------------------------------------------|
G|------------------------------------------------------------|
D|------------------------------------------------------------|2nd time
A|--0--7--7-3-3-5-87-75-0000-232-0--7--7-3-3-5-87-75-0000-5-3-|/3-5-|
D|--0--7--7-3-3-5-87-75-0000-232-0--7--7-3-3-5-87-75-0000-5-3-|/3-5-|

Electric Solo (Coming Soon)

ORDER OF RIFFS:
Intro:x4
Verse:x2
Verse Part 2:x2
Bridge:x1
Bridge Part 2:x1
Chorus:x2
Solo:x1
Bridge:x1
Bridge Part 2:x1
Chorus:x4
Intro:4

And thats it for DEATHKNIGHT by SACRED SOUL
this band is very new - like last week new.
were recording stuff around and well get the mp3 soon

but try this out:P

thanks :D
-God-Of-Rock-
(Lead Guitar/Vocals) Sacred Soul

___________________________________________________________________________

(Tab Legend:>
~ - Let Ring
* - Harmonic
P - Pull Off
H - Hammer On
____________________________________________________________________________
____________________________________________________________________________
Related for Sacred Soul - Deathknight tab
×
Sacred Soul - Deathknight