Song name
# A B C D E F G H I J K L M N O P Q R S T U V W X Y Z

Misc Unsigned Bands - Six-string Symphony - Acoustication tab

Acoustication
Six-String Symphony

Chords Within Song-	G	Am	D	Em	Dm

Strum Pattern - - D | D-U-D | D-U-D | D-U-D-U-D

Intro/Outro
G~	E|--3-------3-------3-----3~-|
	B|----0-------0-------0---0~-|
	G|------0-------0-------0-0~-|

Am~	E|--0-------0-------0-----0~-|
	B|----1-------1-------1---1~-|
	G|------2-------2-------2-2~-|

D~	E|--2-------2-------2-----2~-|
	B|----3-------3-------3---3~-|
	G|------2-------2-------2-2~-|

G~


Verse
G  Am  D  G	(Em)

Verse 1

Verse 2

Chorus
G  (Em) x4

Interlude
Dm  D

Chorus

Solo
E|-3-----3-----2-----2-----|-0-----0-----0-----0-----|
B|---0-----0-----3-----3---|---0-----0-----1-----1---|
G|-----0-----0-----2-----2-|-----0-----0-----2-----2-| X2
D|-------------------------|-------------------------|
A|-------------------------|-------------------------|
E|-------------------------|-------------------------|

G (G)  D (D)  Em (Em)  Am (Am) X2 G~~

D|----------------------------|     |-0--0-0-0--0-0-0--0-0-2-2-2-|
A|----------------------------|  X2 |-2--2-2-2--2-2-2--2-2-2-2-2-|  X2
E|-3--3-3-3--3-3-3--3-3-0-0-0-|     |-3--3-3-3--3-3-3--3-3-0-0-0-|

Verse 3
G  Am  D  G  E|-7-7-7-7-7-|
             B|-8-8-8-8-8-|
             G|-7-7-7-7-7-|
Chorus

Outro

E|-------------------3~~-------------------||-3-|
B|--------------0~~----0~~-----------------||-0-|
G|---------0~~----0~~----0~~---------------||-0-|
D|----0~~----0~~-----------0~~-------------||-0-|
A|------2~~------------------2~~-----------||-2-|
E|--3~~------------------------3-3-3-3-3~~-||-3-|
Tap to rate this tab
# A B C D E F G H I J K L M N O P Q R S T U V W X Y Z