Song name
# A B C D E F G H I J K L M N O P Q R S T U V W X Y Z

Misc Unsigned Bands - Damage Case - I Miss You tab

e|-----------------------------------------------------------------------------|
B|-----------------------------------------------------------------------------|
G|------------------7---9--9--7--6h7--6----------------------------------------|
D|------------7h9--------------------------------------------------------------|
A|-----7h9---------------------------------------------------------------------|
E|-----------------------------------------------------------------------------|

E|-------------------------------------------------------------------------------|
B--------------------------------------------------------------------------------|
G|---9-7--6h7-6------------------------------------------------------------------|
D||------------------9--7-9--7-9--7-9--7--9-7-9-7-9-/11--9-7-9-------------------|
A|-------------------------------------------------------------------------------|
E|-------------------------------------------------------------------------------|

E|------------------------------------------------------------------------------------|
B|------------------------------------------------------7-9-10------------------------|
G||---9-7-6h7-6-9-7-6-7-6----6-----------6-7-9----------------------------------------|
D-------------------------------9----9-7-9--------------------------------------------|
A|------------------------------------------------------------------------------------|
E|------------------------------------------------------------------------------------|

E|--10-9-7--------10-9-7--------/12-10-9-10-9-12-10-9-12-10-9-10-9-----------------|
B|-----------10-7----------10-7----------------------------------------------------|
G|---------------------------------------------------------------------------------|
D|---------------------------------------------------------------------------------|
A|---------------------------------------------------------------------------------|
E|---------------------------------------------------------------------------------|

E|-------9-----------------------------------------------------------------------|
B|--12----12-10-12-10-12---------------------------------------------------------|
G|------------------------------/9-7-6h7-6-9-7-6-7-6-----------------------------|
D|---------------------------------------------------------9-7-9-----------------|
A|-------------------------------------------------------------------------------|
E|-------------------------------------------------------------------------------|

E|----------------------------------------------------------------------------------|
B|----------------------------------------------------------------------------------|
G|--9-7-6-7-6----6------------------------------------------------------------------|
D|---------------9----9-7-9-7-9-----------------------------------------------------|
A|----------------------------------------------------------------------------------|
E|----------------------------------------------------------------------------------|

E|----------------------------------------------------------------------------------|
B|----------------------------------------------------------------------------------|
G|--9-7-6-7-6----6------------------------------------------------------------------|
D|---------------9----9-7----9b--9b--7----------------------------------------------|
A|----------------------------------------------------------------------------------|
E|----------------------------------------------------------------------------------|
Tap to rate this tab
# A B C D E F G H I J K L M N O P Q R S T U V W X Y Z