Guitaretab - guitar tabs
Song name
# A B C D E F G H I J K L M N O P Q R S T U V W X Y Z

Misc Unsigned Bands - Digitaliiz - Lifecycle tab

                           Lifecycle                             


                                                       Digitaliiz
Guitar-Andrew
this is just the intro but its
the chords i use throughout the whole song



        
E||-----------------------------||--------------------------|
B||-----------------------------||--------------------------|
G||----------------------------*||------------------6----6--|
D||--6----6----x-x-x-6--6--x-x-*||--4----4----x-x-x-6----6--|
A||--6----6----x-x-x-6--6--x-x--||--4----4----x-x-x-4----4--|
E||--4----4----x-x-x-4--4--x-x--||--2----2----x-x-x---------|


    
-------------------------|-------------------------|
-------------------------|-------------------------|
----x-x-x------0---------|--0----------------------|
----x-x-x-6----0----6----|--0----x-x-4---------4---|
----x-x-x-6---------6----|-------x-x-4----L----4s--|
----------4---------4----|-------x-x-2----L----2s--|


     
--------------------------||------------------------------||
--------------------------||------------------------------||
--------------------------||*----------------------------*||
--7--6--6--6--6--6--6--6--||*--6----6----x-x-x-6--6--x-x-*||
--7--6--6--6--6--6--6--6--||---6----6----x-x-x-6--6--x-x--||
--5--4--4--4--4--4--4--4--||---4----4----x-x-x-4--4--x-x--||

[ Tab from: http://www.guitaretab.com/m/misc-unsigned-bands/116857.html ]
      
--------------------------|---------------------------|
--------------------------|---------------------------|
--------------------------|---------------------------|
--6--6--6--6--4--4--4--4--|--6--6--6--6--4--4--4--4S--|
--4--4--4--4--2--2--2--2--|--4--4--4--4--2--2--2--2S--|
--------------------------|---------------------------|


   
--------------------------|--------------------------|
--------------------------|--------------------------|
--------------------------|--6-----6-----6--x--6-----|
--6--6--6--6--4--4--4--4--|--6-----6-----6--x--6-----|
--4--4--4--4--2--2--2--2--|--4-----4-----4--x--4-----|
--------------------------|--------------------------|


----------------------------|----------------------------|
----------------------------|----------------------------|
----------------------------|----------------------------|
--6----6----x-x-x-6--6--x-x-|--6----6----x-x-x-6--6--x-x-|
--6----6----x-x-x-6--6--x-x-|--6----6----x-x-x-6--6--x-x-|
--4----4----x-x-x-4--4--x-x-|--4----4----x-x-x-4--4--x-x-|


    
----------------------------|----------------------------||
----------------------------|----------------------------||
----------------------------|----------------------------||
--6----6----x-x-x-6--6--x-x-|--6----6----x-x-x-6--6--x-x-||
--6----6----x-x-x-6--6--x-x-|--6----6----x-x-x-6--6--x-x-||
--4----4----x-x-x-4--4--x-x-|--4----4----x-x-x-4--4--x-x-||
Related for Digitaliiz - Lifecycle tab