Song name
# A B C D E F G H I J K L M N O P Q R S T U V W X Y Z

Misc Unsigned Bands - Simp - Lies tab

e|-0----------2-|  |----------------|[through the intro]
b|------1-------|  |----------------|
g|--------------|  |----------------|
D|--------------|  |----------------|
A|--------------|  |---55-55-55-----|
E|--------------|x2|--0--0--0--00---|

play this next part lightly trought the verse
e|--12--------10--------13--------|
b|-----13--------11--------14-----|
g|-------14--------12--------15--|
D|--------------------------------|
A|--------------------------------|
E|--------------------------------|

simple guitar solo (jkaying) the first
part is easy the next one is super fast
e|-----------16-18-------16-18-19^-----------------------------|
b|-----------------17-17---------------------------------------|
g|-----------------------------------15/15/15/15/--------------|
D|------14-----------------------------------------------------|
A|-------------------------------------------------------------|
E|-------------------------------------------------------------|

e|--1213151213151213151121315--15-----------|
b|--------------------------------16--------|
g|-----------------------------------16-17--|
D|------------------------------------------|
A|------------------------------------------|
E|------------------------------------------|

e|-1212121212-------------------------------------|
b|-----------1313131313-----------1212121212------|
g|---------------------1414141414-----------------|
D|------------------------------------------------|
A|------------------------------------------------|
E|------------------------------------------------|

e|----------------------------------------|
b|-----99----99----1010----1010-----------|
g|---10--1010--1011----1111----1111-------|
D|----------------------------------------|
A|----------------------------------------|
E|----------------------------------------|

e|----------------------|  |-------------------------------|
g|--10h12p11h13p12h14p13|  |-------------------------------|
b|----------------------|  |---t15t16t19-do this alot------|
D|----------------------|  |-------------------------------|
A|----------------------|  |-------------------------------|
E|----------------------|x3|-------------------------------|

end solo

through the next verse
e|------------------------------------|
g|---13--------13----------13---------|
b|------10--------12----------13------|
D|---------15--------14----------13---|
A|------------------------------------|
E|------------------------------------|

really fast till the end
e|------------------------------|
b|------------------------------|
g|------------------------------|
D|------------------------------|
A|------------------------------|
E|--654654654654654654654654654-|

e|----------------------------------|
b|----------------------------------|
g|----------------------------------|
D|----------------------------------|
A|----------------------------------|
E|-321321321321321321321321321321---|

key:
t:tapping part
h:hammer
p:pull off
/:slide down to one
Tap to rate this tab
# A B C D E F G H I J K L M N O P Q R S T U V W X Y Z