Song name
# A B C D E F G H I J K L M N O P Q R S T U V W X Y Z

Misc Unsigned Bands - Ozzy Griffin - Suicide Embers tab

S u i c i d e   E m b e r s

e|--------------------|
B|--------------------|
G|--------------------|   plays once then once again on the top of this lead part... :
D|-0----8----9---10---|
A|-0----8----9---10---|
E|-0----8----9---10---|

e|----------------------------------------------------------------------------------|
B|----------------------------------------------------------------------------------|
G|----------------------------------------------------------------------------------|
D|-------3------------5----------7-8---------8--------------10-------------12-13----|
A|--3-5----5---5-7------7----7-8-----8-10-----10---10-12------12---12-13------------|
E|------0----0------0------0---------------0------0-------0-------0-----------------|

e|-----------------------------------------------------------------------------|
B|-----------------------------------------------------------------------------|
G|--------3-----------5----------7----------8--------------10-12-12 (b14)------|
D|--3-5-----5----5-7---7----7-8---8--8-10-----10---10-12-----------------------|
A|-----------------------------------------------------------------------------|
E|-------0-----0-----0-----0---------------0------0-------0--------------------|

thanks!!
Ozzy xx
Tap to rate this tab
 
# A B C D E F G H I J K L M N O P Q R S T U V W X Y Z