Song name
# A B C D E F G H I J K L M N O P Q R S T U V W X Y Z

Misc Unsigned Bands - Fatality - Intro tab

This song is actually called Intro. Do not deny because you think this is only part of a song.

#----------------------------------PLEASE NOTE---------------------------------#
#This file is the author's own work and represents their interpretation of the #
#song. You may only use this file for private study, scholarship, or research. #
#------------------------------------------------------------------------------#

INTRO
As recorded by Fatality
(From the 2004 Album DEMO)

Transcribed by Jonathan Rose
	

Words and Music by Fatality

Gtr I (C G C F A D) - 'Left Channel'
Gtr II (C G C F A D) - 'Right Channel'
Gtr III (C G C F A D) - 'Piano'

   Intro
    NYC Hardcore Q=176
    D5
   4/4
    Gtr I
     >
     W           +W            +W            +W      3x
||------------|-------------|-------------|----------||
||o-----------|-------------|-------------|---------o||
||--11--------|-(11)--------|-(11)--------|-(11)-----||
||---0--------|--(0)--------|--(0)--------|--(0)-----||
||o--0--------|--(0)--------|--(0)--------|--(0)----o||
||---0--------|--(0)--------|--(0)--------|--(0)-----||
|
|   Gtr II
|    >
|    W           +W            +W            +W      3x
||------------|-------------|-------------|----------||
||o-----------|-------------|-------------|---------o||
||---7--------|--(7)--------|--(7)--------|--(7)-----||
||---0--------|--(0)--------|--(0)--------|--(0)-----||
||o--0--------|--(0)--------|--(0)--------|--(0)----o||
||---0--------|--(0)--------|--(0)--------|--(0)-----||


                                       H.=H
                                              Eb5  Db5
  >
  W          +W           +W           +H     H     a
|----------|------------|------------|----------------||
|----------|------------|------------|----------------||
|-7--------|-(7)--------|-(7)--------|-(7)------------||
|-0--------|-(0)--------|-(0)--------|-(0)------------||
|-0--------|-(0)--------|-(0)--------|-(0)----1s===11-||
|-0--------|-(0)--------|-(0)--------|-(0)----1s===11-||
|
| >
| W          +W           +W           +W
|----------|------------|------------|----------------||
|----------|------------|------------|----------------||
|-7--------|-(7)--------|-(7)--------|-(7)------------||
|-0--------|-(0)--------|-(0)--------|-(0)------------||
|-0--------|-(0)--------|-(0)--------|-(0)------------||
|-0--------|-(0)--------|-(0)--------|-(0)------------||


 Breakdown
  Slower Q=135
  D5                                           N.C.
  Gtrs I, II
  PM---------------------------------------|
  S S E S S E S S Q  S S   S S E S S S S S S E Q
|------------------------|------------------------|
|------------------------|---------------------4--|
|------------------------|---------------------7--|
|------------------------|------------------------|
|-0-0---0-0---0-0----0---|-0-0---0-0-0-0-0-0------|
|-0-0---0-0---0-0----0---|-0-0---0-0-0-0-0-0------|


  D5                                           N.C.
  PM---------------------------------------|
  S S E S S E S S Q  S S   S S E S S S S S S E Q
|------------------------|--------------------------|
|------------------------|---------------------4----|
|------------------------|---------------------7----|
|------------------------|--------------------------|
|-0-0---0-0---0-0----0---|-0-0---0-0-0-0-0-0--------|
|-0-0---0-0---0-0----0---|-0-0---0-0-0-0-0-0--------|


  D5                                       N.C.
  PM------------------------------------|
  S E. S E. S S +Q   E   S E. S S S S S E. Q
|----------------------|----------------------|
|----------------------|-------------------4--|
|----------------------|-------------------7--|
|----------------------|----------------------|
|-0-0--0-0--0-0-(0)--0-|-0-0--0-0-0-0-0-0-----|
|-0-0--0-0--0-0-(0)--0-|-0-0--0-0-0-0-0-0-----|


  D5                                       N.C.
  PM------------------------------------|
  S E. S E. S S +Q   E   S E. S S S S S E. Q
|----------------------|----------------------||
|----------------------|-------------------4--||
|----------------------|-------------------7--||
|----------------------|----------------------||
|-0-0--0-0--0-0-(0)--0-|-0-0--0-0-0-0-0-0-----||
|-0-0--0-0--0-0-(0)--0-|-0-0--0-0-0-0-0-0-----||


 Plan B
  Slower Q=130
  N.C.
  +W              +W
|---------------|--------|
|-(4)-----------|-(4)----|
|-(7)b8=========|=(7)----|
|---------------|--------|
|---------------|--------|
|---------------|--------|


   >                                                    <
  +W                   +W                     +H.      +E. +S
|-------------------|----------------------|--------------------||
|-(4)---------------|--(4)-----------------|--(4)------(4)-(4)--||
|-(7)pb8============|==(7)-----------------|--(7)------(7)-(7)r-||
|-------------------|----------------------|--------------------||
|-------------------|----------------------|--------------------||
|-------------------|----------------------|--------------------||
|
| Gtr III
|  Q        H.         +H.       S.  S.  S    +W
|-------------------|-----------12---------|--------------------||
|-12-------15-------|-(15)----------15--14-|-(14)---------------||
|-------------------|----------------------|--------------------||
|-------------------|----------------------|--------------------||
|-------------------|----------------------|--------------------||
|-------------------|----------------------|--------------------||


   Fight
    D5
    Gtrs I, II
                        >
    PM-------------------------------------------|
    Q  Q  S S S S Q    +W           +W           +W
||-------------------|------------|------------|---------||
||o------------------|------------|------------|--------o||
||-------------------|------------|------------|---------||
||-------------------|------------|------------|---------||
||o-0--0--0-0-0-0-0--|-(0)--------|-(0)--------|-(0)----o||
||--0--0--0-0-0-0-0--|-(0)--------|-(0)--------|-(0)-----||


 Beatdown
  D5
  PM-------------------------------------
  Q  Q  S S S S Q    +Q   Q  S S S S Q
|------------------|--------------------|
|------------------|--------------------|
|------------------|--------------------|
|------------------|--------------------|
|-0--0--0-0-0-0-0--|-(0)--0--0-0-0-0-0--|
|-0--0--0-0-0-0-0--|-(0)--0--0-0-0-0-0--|


                                           N.C.
 ----------------------------------------|
  +Q   Q  S S S S Q    +Q   Q  S S S S S S E
|--------------------|-------------------------|
|--------------------|---------------------4---|
|--------------------|---------------------7---|
|--------------------|-------------------------|
|-(0)--0--0-0-0-0-0--|-(0)--0--0-0-0-0-0-0-----|
|-(0)--0--0-0-0-0-0--|-(0)--0--0-0-0-0-0-0-----|


       D5
       PM----------------------------------
  +Q   Q  S S S S Q    +Q   Q  S S S S Q
|--------------------|--------------------|
|-(4)----------------|--------------------|
|-(7)----------------|--------------------|
|--------------------|--------------------|
|------0--0-0-0-0-0--|-(0)--0--0-0-0-0-0--|
|------0--0-0-0-0-0--|-(0)--0--0-0-0-0-0--|


                                           N.C.
 ----------------------------------------|
  +Q   Q  S S S S Q    +Q   Q  S S S S S S E
|--------------------|-------------------------|
|--------------------|---------------------4---|
|--------------------|---------------------7---|
|--------------------|-------------------------|
|-(0)--0--0-0-0-0-0--|-(0)--0--0-0-0-0-0-0-----|
|-(0)--0--0-0-0-0-0--|-(0)--0--0-0-0-0-0-0-----|


                                        2/4
                >
  +W           +W           +W           +H
|------------|------------|------------|--------*|
|-(4)--------|-(4)--------|-(4)--------|-(4)----*|
|-(7)--------|-(7)--------|-(7)--------|-(7)----*|
|------------|------------|------------|--------*|
|------------|------------|------------|--------*|
|------------|------------|------------|--------*|



Duration Legend
---------------
W - whole; H - half; Q - quarter; E - 8th; S - 16th; T - 32nd; X - 64th; a - acciaccatura
+ - note tied to previous; . - note dotted; .. - note double dotted
Uncapitalized letters represent notes that are staccato (1/2 duration)
Irregular groupings are notated above the duration line
Duration letters will always appear directly above the note/fret number it represents the
duration for.  Duration letters with no fret number below them represent rests.  Multi-
bar rests are notated in the form Wxn, where n is the number of bars to rest for.  Low
melody durations appear below the staff

Tablature Legend
----------------
 h   - hammer-on
 p   - pull-off
 b   - bend
 pb  - pre-bend
 r   - bend release (if no number after the r, then release immediately)
 /\  - slide into or out of (from/to "nowhere")
 s   - legato slide
 S   - shift slide
 - natural harmonic
[n]  - artificial harmonic
n(n) - tapped harmonic
 ~   - vibrato
 tr  - trill
 T   - tap
 TP  - trem. picking
 PM  - palm muting
\n/  - tremolo bar dip; n = amount to dip
 \n  - tremolo bar down
 n/  - tremolo bar up
/n\  - tremolo bar inverted dip
 =   - hold bend; also acts as connecting device for hammers/pulls
 <> - volume swell (louder/softer)
 x   - on rhythm slash represents muted slash
 o   - on rhythm slash represents single note slash

Misc Legend
-----------
 |  - bar
||  - double bar
||o - repeat start
o|| - repeat end
*|  - double bar (ending)
 :  - bar (freetime)
 $  - Segno
 &  - Coda
Tempo markers -  = BPM(8/16=s8/s16), where s8 = swing 8ths, s16 = swing 16ths


** Generated using Power Tab Editor by Brad Larsen: The Official Power Tab Web Site

Tap to rate this tab
 
# A B C D E F G H I J K L M N O P Q R S T U V W X Y Z