Song name
# A B C D E F G H I J K L M N O P Q R S T U V W X Y Z

Misc Unsigned Bands - Descending Beneath - Whispers In Shadows tab

Help us improve GuitareTab! Take a short survey!
Tune-Drop C
Artist-Descending Beneath
Album-Denying the Existence of Life
Song-Whispers in Shadows

This song is mostly keyboard but with a drum and guitar entrance at the end
after a slow drum roll for 10 seconds guitars come in

(guitar 1)
--------------------------------------------------------|
1-0-----------------------------------------------------|
----1-0-------------------------------------------------|
--------1-0-----------------33-4-5-4--------------------|
------------1-0-1111-3-3h4b----------3-1111-0========---|
--------------------------------------------0========---|

(guitar 2)
--------------------------------------------------------|
--------------------------------------------------------|
--------------------------------------------------------|
----------------1111------------------------------------|
1-0-1-0-1-0-1-0-1111-5-5----55-6-7-6-5-1111-0========---|
1-0-1-0-1-0-1-0-1111-5-5----55-6-7-6-5-1111-0========---|
Related for Descending Beneath - Whispers In Shadows tab