Song name
# A B C D E F G H I J K L M N O P Q R S T U V W X Y Z

Misc Unsigned Bands - Requiem Of Innocence - Requiem Of Innocence tab

Alright so its my first tab for my own song...its can be played really
in any tuning atm..I prefer to play it in drop B but sometimes I'll play it in drop A as well.
* pinch harmonic
~ Let ring
Most of the triple 000's are meant to be triplets..theres a
few triplets in the bridge too but the stupid program wont keep them grouped together..
you dont have to play the bridge using triplets tho so it doesnt matter...for the full 
got to you tube and type
in requiem of innocence by shadowbane101 to hear how its supposed to sound :) enjoy!

Intro/Verse

E  :-------------------------------|------------------------------|--------|
B  :-------------------------------|------------------------------|--------|
G  :-------------------------------|------------------------------|--------|
D  :-------------------------------|------------------------------|--------|
A  :------5-------7-------8-------7|------5*-------12-------10----|--8-----|
E  :0-0-0---0-0-0---0-0-0---0-0-0--|0-0-0----0-0-0----0-0-0----0-0|0---0-0-|

E  :----------------------|------------------------------|------------------|
B  :----------------------|------------------------------|------------------|
G  :----------------------|------------------------------|------------------|
D  :----------------------|------------------------------|------------------|
A  :--10-------8*------5--|----7-------8-------7-------5-|7-7-7-7-7-7-x2----|
E  :0----0-0-0---0-0-0---0|0-0---0-0-0---0-0-0---0-0-0---|7-7-7-7-7-7-------|

Prechorus

E  :--------------------------------|-------------------------------|------|
B  :--------------------------------|-------------------------------|------|
G  :------7-------9-------10-------9|------7-------7-------9--------|----6-|
D  :0-0-0---0-0-0---0-0-0----0-0-0--|0-0-0---8-8-8---8-8-8---8-8-8-7|7-7---|
A  :--------------------------------|-------------------------------|------|
E  :--------------------------------|-------------------------------|------|

E  :-------------------------|-----------------------------|----------------|
B  :-------------------------|-----------------------------|----------------|
G  :------9-------7-------9--|----10-------9-------7*------|----------------|
D  :7-7-7---0-0-0---0-0-0---0|0-0----0-0-0---0-0-0---------|----------------|
A  :-------------------------|------------------------7-7-7|7-7-7-----------|
E  :-------------------------|------------------------7-7-7|7-7-7-----------|


Chorus

E  :-------------------|-------------------------|--------------------|----|
B  :-------------------|-------------------------|--------------------|----|
G  :--------2~---------|-------------------------|-------------2~-----|----|
D  :3~------2~-----0-0-|0-0-0-0-0-0-0-0-0-0-5-5-5|2-3-2-3~-----2~-----|0-0-|
A  :3~------0~-----0-0-|0-0-0-0-0-0-0-0-0-0-5-5-5|2-3-2-3~-----0~-----|0-0-|
E  :3~-------------0-0-|0-0-0-0-0-0-0-0-0-0-5-5-5|2-3-2-3~------------|0-0-|

E  :-------------------|--------------------|
B  :-------------------|--------------------|
G  :-------------------|--------------------|
D  :0-0-0-0-0-0-0-0-0-0|5-5-2-3-2-----------|
A  :0-0-0-0-0-0-0-0-0-0|5-5-2-3-2-----------|
E  :0-0-0-0-0-0-0-0-0-0|5-5-2-3-2-----------|


Bridge/backing on solo

E  :-------------------------|------------------------|----------------------|
B  :-------------------------|------------------------|----------------------|
G  :-------------------------|------------------------|----------------------|
D  :-------------------------|------------------------|----------------------|
A  :0-0-0-0-0-0-0-0-0---0---0|-0-0-0-0-0-0-0-0-0---0--|0-0-0-0-0-0-0-0-0-0-0-|
E  :0-0-0-0-0-0-0-0-0-3-0-5-0|-0-0-0-0-0-0-0-0-0-3-0-5|0-0-0-0-0-0-0-0-0-0-0-|

E  :--|-------------------------|---------------------------|---------------|
B  :--|-------------------------|---------------------------|---------------|
G  :--|-------------------------|---------------------------|---------------|
D  :--|-------------------------|--------------7-7-7-7-7-7-7|7-7-7-7-7------|
A  :-0|0-0-0-0-0-0-0-0-0-0-0-0-0|0-0-0-0-0-0-0-7-7-7-7-7-7-7|7-7-7-7-7------|
E  :-0|0-0-0-0-0-0-0-0-0-0-0-0-0|0-0-0-0-0-0-0-7-7-7-7-7-7-7|7-7-7-7-7------|


Intro / Verse / Prechorus / Chorus / Verse / Prechorus / Chorus/ Bridge / Chorus X 2 and end
Tap to rate this tab
# A B C D E F G H I J K L M N O P Q R S T U V W X Y Z