Song name
# A B C D E F G H I J K L M N O P Q R S T U V W X Y Z

Misc Unsigned Bands - Knights Of Suburbia - Shimmer tab

Shimmer 

(There's some really fast delay going on the entire song)

Verse (x4)
|-3-3-3-3-3-3-3-3-3-3-3-3-3-3-3-3------------------------------------|
|0-0-0-0-1-1-1-1-3-3-3-3-1-1-1-1-------------------------------------|
|--------------------------------------------------------------------|
|--------------------------------------------------------------------|
|--------------------------------------------------------------------|
|--------------------------------------------------------------------|




Riff (x4)
|-5-4-5-4--2--2-2-4--------------------------------------------------|
|5-------------------------------------------------------------------|
|--------------------------------------------------------------------|
|--------------------------------------------------------------------|
|--------------------------------------------------------------------|
|--------------------------------------------------------------------|


Bridge (Still delayed)

Asus2    A     Asus4    A



Asus2                  A          Asus4                A
Do you know why I come back to you again and again and again




Asus2    A     Asus4    A




Asus2          A
It's your eyes

Asus4             A
The light in your eyes




Asus2    A     Asus4    A





Chords


|-0--------0---------0-----------------------------------------------|
|----------2---------3-----------------------------------------------|
|-2--------2---------2-----------------------------------------------|
|-2--------2---------2-----------------------------------------------|
|-0--------0---------0-----------------------------------------------|
|--------------------------------------------------------------------|
Asus2      A       Asus4



Chorus
|-2------4------5------4------2------4------5------4-----2-----------|
|--------------------------------------------------------------------|
|--------------------------------------------------------------------|
|--------------------------------------------------------------------|
|--------------------------------------------------------------------|
|--------------------------------------------------------------------|




|0---0---0---0---0---0---0---0---0---0---0---0---0---0---------------|
|--------------------------------------------------------------------|
|--------------------------------------------------------------------|
|--------------------------------------------------------------------|
|--------------------------------------------------------------------|
|--------------------------------------------------------------------|



Solo                   
|--2-----4-----5-----4-----2-2-2-2-2-2-4--4-4-4-4-4-4--5-5-5-5-5-5-5-|
|5-----5-----5-----5-----5--5-5-5-5-5----5---5-5-5-5----5---5-5-5-5--|
|--------------------------------------------------------------------|
|--------------------------------------------------------------------|
|--------------------------------------------------------------------|
|--------------------------------------------------------------------|

|-4--4-4-4-4-4-4--2--2-2-2-2-2-2-0-----------------------------------|
|---5---5-5-5-5-----5---5-5-5-5--------------------------------------|
|--------------------------------------------------------------------|
|--------------------------------------------------------------------|
|--------------------------------------------------------------------|
|--------------------------------------------------------------------|
Tap to rate this tab
# A B C D E F G H I J K L M N O P Q R S T U V W X Y Z