Song name
# A B C D E F G H I J K L M N O P Q R S T U V W X Y Z

Misc Unsigned Bands - Maniyacal Parade - Ill Let You Know When tab

Help us improve GuitareTab! Take a short survey!
e|-------------|-------------|-------------|
B|----------3--|----------3--|----------1--|
G|-------------|-------------|-------------|
D|--------4----|-------4-----|-------2-----|
A|--2----------|--5----------|--3----------|
E|-------------|-------------|-------------|

e|-----------------2-2----|
B|----------3--2-2-----2--|
G|------------------------|
D|-------4----------------|
A|--2---------------------|
E|------------------------|

Well that's all I've gotten so far, or well that's not true that's all that I feel like 
right now.I'd like to finish it before I post the entire thing.PLay it, and yeah, let me 
what you think.jakewake15@hotmail.com or maniyacalparade17@live.com
Related for Maniyacal Parade - Ill Let You Know When tab