Guitaretab - guitar tabs
Song name
# A B C D E F G H I J K L M N O P Q R S T U V W X Y Z

Misc Unsigned Bands - Mason Fraser - Emily tab

-------------------------------------------------------------------------------
			    Emily - Mason Fraser
-------------------------------------------------------------------------------
Tabbed by: Mason Fraser - So do not tell me it's inaccurate because I wrote the
friggin' thing!
Email: MasonF123@hotmail.com

Tuning: EADGBe

This Is an ACOUSTIC Song. (Can be played on electric but it's not that same =(

[---------------------------------------------------------------------------]
[This is for personal use only, if used in a band as a song WITHOUT written ]
[consent will be delt with, If claiming as a song you wrote is strickly     ]
[forbidden, PERSONAL USE ONLY, If you enjoy it, then do not abuse your right]
[to listen and play it.                                                     ]
[---------------------------------------------------------------------------]

 {Play This 4 times only once }
 |___________Intro____________]  G ↓↓↑↑↓            C ↓↓↑↑↓                
e|------------------------0-0-|--3------------------0------------------------|
B|----3-----3-----3-------2-2-|--3------3-------3---1--------1-------1-------|
G|------2-----2-----2-----3-3-|--0--------0---0-----0----------0---0---------|
D|--0-----3---------------0-0-|--0----------0-------2------------2-----------|
A|--------------3-------------|--2------------------3------------------------|
E|--------------------3-3-----|--3------------------3------------------------|

                      That 3 in that chord is correct.   
                       / 
   D ↓↓↑↑↓            D D
e|-2-------2-------2--3-2-----|----------------------------------------------|
B|-3---------3---3----3-3-----|----------------------------------------------|
G|-2-----------2------2-2-----|--------------Intro x3------------------------|
D|-0------------------0-0-----|----------------------------------------------|
A|-0--------------------------|----------------------------------------------|
E|----------------------------|----------------------------------------------|

[Chorus]
        G ↓↓↑↑↓        C ↓↓↑↑↓           [D ↓↓] [↑↑] [↓]       Am ↓↓↑↑↓ 	
e|------3---------------0-----------------2-----3----2----------0------------|
B|------3---------------1-----------------3-----3----3----------1------------|
G|------0---------------0-----------------2-----2----2----------2------------|
D|------0---------------2-----------------0-----0----0----------2------------|
A|------2---------------3---------------------------------------0------------|
E|------1---------------3----------------------------------------------------|
[ Tab from: http://www.guitaretab.com/m/misc-unsigned-bands/117216.html ]
       G [Slow]
e|-----3--------------------|------------------------------------------------|
B|-------3------------------|------------------------------------------------|
G|---------0----------------|----------Intro x2------------------------------|
D|-----------0--------------|------------------------------------------------|
A|-------------2------------|------------------------------------------------|
E|---------------3----------|------------------------------------------------|

Solo:
e|------------------2-0------------------------------------------------------|
B|---------------------------------------------------------------------------|
G|---------------------------------------------2-----------------------------|
D|----------(2)(0)--------0---2/4--------------0----3---3-3/5---5-5/7--------|
A|----0-3---------3-----2---------5\3-0---0h3----3--1---1-1/3---3-3/5--------|
E|---------------------------------------------------------------------------|


                                                            G [Slow]
e|----------------------------------7-10-10-7---------------3----------------|
B|-------------------------------9------------9--7---5---5----3--------------|
G|--------2--------------------------------------------6--------0------------|
D|--------0----3---3-3/5-5-5/7------------------------------------0----------|
A|---0h-3---3--1---1-1/3-3-3/5--------------------------------------2--------|
E|--------------------------------------------------------------------3------|
                                                                       \
                                                                  End of Solo
e|-----------------------|---------------------------------------------------|
B|-----------------------|---------------------------------------------------|
G|---Intro x2------------|------------Chorus---------------------------------|
D|-----------------------|---------------------------------------------------|
A|-----------------------|---------------------------------------------------|
E|-----------------------|---------------------------------------------------|

        Outro                      G [Slow]
e|------------------------0-0|-----3-----------------------------------------|
B|----3-----3-----3-------2-2-|-------3-----The------------------------------|
G|------0-----0-----0-----3-3-|----------0-------End.------------------------|
D|--0-----3---------------0-0-|-------------0--------------------------------|
A|--------------3-------------|----------------2-----------------------------|
E|--------------------3-3-----|-------------------3--------------------------|


| /  slide up
| \  slide down
| h  hammer-on
| p  pull-off
| ~  vibrato
| +  harmonic
| x  Mute note
===============================================================================


 Copyright 2008 Mason Fraser Music.
Any redistribution of anykind is not allowed, all you have to do is ask me if
you want to use the song or somthing. Like not that hard, chances are I will
Say yes.

[---------------------------------------------------------------------------]
[This is for personal use only, if used in a band as a song WITHOUT written ]
[consent will be delt with, If claiming as a song you wrote is strickly     ]
[forbidden, PERSONAL USE ONLY, If you enjoy it, then do not abuse your right]
[to listen and play it.                                                     ]
[---------------------------------------------------------------------------]
Related for Mason Fraser - Emily tab