Song name
# A B C D E F G H I J K L M N O P Q R S T U V W X Y Z

Misc Unsigned Bands - Whitiker Forest - The Hunted tab

-------------------------------------------------------------------------------
			     The Hunted- Whitiker Forest
-------------------------------------------------------------------------------
Tabbed by:1988guitarist88
Email: i really like these guys,, think this is the intro
check out the timing...
www.myspace.com/whitikerforest

Tuning:1/2 step down

e|-------------------------------------------------------------------------------------|
B|-------------------------------------------------------------------------------------|
G|----------------0--------------------------------2-----------------------------------|
D|--------2----------2----------2p1-------1------------1----------1--------------------|
A|-----2------2----------2------------2--------2------------2--------------------------|
E|--0----------------------------------------------------------------------------------|

e|----------------------------------------------------|
B|----------------------------------------------------|
G|-----333333333/ 22222222   55555555----3-----2------|
D|-----222222222/ 33333333   44444444-22----11-----1--|
A|----------------------------------------------------|
E|----------------------------------------------------|



| /  slide up
| \  slide down
| h  hammer-on
| p  pull-off
| ~  vibrato
| +  harmonic
| x  Mute note
===============================================================================
Tap to rate this tab
# A B C D E F G H I J K L M N O P Q R S T U V W X Y Z