Song name
# A B C D E F G H I J K L M N O P Q R S T U V W X Y Z

Misc Unsigned Bands - Burning Redemption - Heartache tab

This is the introduction of our album "fear inside" that we are working on. We hope you 
this and spread the word! this is my first tab so sorry if its a little hard to understand.

the tuning is one half step down from drop D low to high:(Db,Ab,Db,Gb,Bb,Eb)

LEAD GUITAR:
|-------1~------1~-------1---1-1p0------|
|-----1----------------------------1----|
|---------------------------------------|
|--3---------3---------3----------------|
|1---------3---------5------------------|
|---------------------------------------|

|-------1~------1~-------1---1-1~-------|
|-----1---------------------------------|
|---------------------------------------|
|--3---------3---------3----------------|
|1---------3---------5------------------|
|---------------------------------------|

|-------1~------1~-------1---1-1p0------|
|-----1----------------------------1----|
|---------------------------------------|
|--3---------3---------3----------------|
|1---------3---------5------------------|
|---------------------------------------|

|-------1~------1~-------1---1-1~-------|
|-----1---------------------------------|
|---------------------------------------|
|--3---------3---------3----------------|
|1---------3---------5------------------|
|---------------------------------------|

|-------1~------1~-------1---1-1p0-------|
|-----1----------------------------1-----|
|--------------------------------------7\|
|--3---------3---------3-----------------|
|1---------3---------5-------------------|
|----------------------------------------|

RHYTHM GUITAR:
|-------------------------------------------------|
|-------------------------------------------------|
|----------------(repeat throughout whole song)---|
|2----3----5\4\3\2-2----3----5--------------------|
|2----3----5\4\3\2-2----3----5--------------------|
|2----3----5\4\3\2-2----3----5--------------------|
let it ring for a sec before you slide down
Tap to rate this tab
# A B C D E F G H I J K L M N O P Q R S T U V W X Y Z