Song name
# A B C D E F G H I J K L M N O P Q R S T U V W X Y Z

Misc Unsigned Bands - Gimp - Keep It To Yourself tab

Help us improve GuitareTab! Take a short survey!
-------------------------------------------------------------------------------
			     Keep It To Yourself - Gimp
-------------------------------------------------------------------------------
Tabbed by: Sean Mallari
Email: SkaforBrains@gmail.com

Tuning: Standard


Intro/Chorus/Solo
e|---4-----0-----0-----2------------------------------------------|
B|---6-----2-----0-----4------------------------------------------|
G|---6-----2-----1-----4------------------------------------------|
D|---6-----2-----2-----4------------------------------------------|
A|---4-----0-----2-----2------------------------------------------|
E|---4-----------0-----2------------------------------------------|


Verse
e|---0-----0-----2-----0------------------------------------------|
B|---2-----0-----4-----0------------------------------------------|
G|---2-----1-----4-----1------------------------------------------|
D|---2-----2-----4-----2------------------------------------------|
A|---0-----2-----2-----2------------------------------------------|
E|---------0-----2-----0------------------------------------------|

Solo
e|----------------------------------------------------------------|
B|----9-9-7--------9----9-9-7-------------------------------------|
G|------------9-----------------9-8-----------------7-9-7---------|
D|---------------9--------------------11-9------7-9---------------|
A|----------------------------------------------------------------|
E|----------------------------------------------------------------|

e|----------------------------------------------------------------|
B|---9-9-7------------9-9--99-10-9-7------------------------------|
G|------------9--------------------------------9-8-9--------------|
D|---------------9------------------------------------------------|
A|----------------------------------------------------------------|
E|----------------------------------------------------------------|

e|----------------------------------------------------------------|
B|---9-9-10-9-7----------7-9---9-9-10-9-7-------------------------|
G|--------------------9-----------------------------9-8-9---------|
D|----------------------------------------------------------------|
A|----------------------------------------------------------------|
E|----------------------------------------------------------------|
Related for Gimp - Keep It To Yourself tab