Song name
# A B C D E F G H I J K L M N O P Q R S T U V W X Y Z

Misc Unsigned Bands - Autoplay Conspiracy - Chikn Samuch tab

Drop C

guitar 1 - lead guitar
guitar 2 - rythm guitar

Both guitars
(Breakdown A)
|--------------------------------------------------------------------|
|--------------------------------------------------------------------|
|--------------------------------------------------------------------| 2x's
|-0-00-00-0000-00--0-00-00-0000-00--0-00-00-0000-00--0-00-00-0-0-----| 
|-0-00-00-0000-00--0-00-00-0000-00--0-00-00-0000-00--0-00-00-0-0-----|
|-0-00-00-0000-00--0-00-00-0000-00--0-00-00-0000-00--0-00-00-0-0-3b--|
  . .. .. .... ..  . .. .. .... ..  . .. .. .... ..  . .. .. . .

(Breakdown B)
|----------------------------------------------|
|----------------------------------------------|
|----------------------------------------------| 
|-0~-0~-0---00~-0~-0~-0~-0~-0~-0~-0~-0~-0~-0~--|
|-0~-0~-0---00~-0~-0~-0~-0~-0~-0~-0~-0~-0~-0~--|
|-0~-0~-0---00~-0~-0~-0~-0~-0~-0~-0~-0~-0~-0~--|

|---------------------------------|
|---------------------------------|
|---------------------------------| 
|-0-0-0---00-0-0-0-0-0-0-0-0-0-0--|
|-0-0-0---00-0-0-0-0-0-0-0-0-0-0--|
|-0-0-0---00-0-0-0-0-0-0-0-0-0-0--|
  . . .   .. . . . . . . . . . .

|-----------------------------------------------|
|-----------------------------------------------|
|-----------------------------------------------| 2x's
|-0-3-1-0-4-3-1--0-0-0--00-0-0-0-0-0-0-0-0-0-0--|
|-0-3-1-0-4-3-1--0-0-0--00-0-0-0-0-0-0-0-0-0-0--|
|-0-3-1-0-4-3-1--0-0-0--00-0-0-0-0-0-0-0-0-0-0--|
                 . . .  .. . . . . . . . . . . 

guitar 1
|------------------|
|------------------|
|-10~---12~---9~---| 
|-x-~---x-~---x~---|
|-8-~---10~---7~---|
|------------------|

guitar 2
|--------------------|
|--------------------|
|--------------------| 
|-8~----10~----7~----|
|-8~----10~----7~----|
|-8~----10~----7~----|

guitar 1
|-----------------------------------------------------------------------------------------|
|---------------------------------------------------------------------------------4h6h7---|
|---------------------------------------------------------------------------5h7h8---------| 4x's 
|-000-------5h7h8-000-------5h7h8-000-------000-------5h7h8-000-------5h7h8---------------|
|-000-5h7h8-------000-5h7h8-------000-5h7h8-000-5h7h8-------000-5h7h8---------------------|
|-000-------------000-------------000-------000-------------000---------------------------|
  ...             ...             ...       ...             ...

guitar 2
|-----------------------------------------------------------------------|
|-----------------------------------------------------------------------|
|-----------------------------------------------------------------------| 
|-000-------------000-------------000-------000-------------000---777---|
|-000-------------000-------------000-------000-------------000---777---|
|-000-------------000-------------000-------000-------------000---777---|
  ...             ...             ...       ...             ...   ...   

|-----------------------------------------------------------------------|
|-----------------------------------------------------------------------|
|-----------------------------------------------------------------------| 
|-888-------------888-------------888-------888-------------888---555---|
|-888-------------888-------------888-------888-------------888---555---|
|-888-------------888-------------888-------888-------------888---555---|
  ...             ...             ...       ...             ...   ...
repeat 2x's

Both guitars
|------|
|------|
|------| 
|--0~--|
|--0~--|
|--0~--|
   .
guiatr 1 (plays alone for a while)
|---------------------------------------------------------------------------|
|---------------------------------------------------------------------------|
|---------------------------------------------------------------------------| 2x's 
|-10--1010101010--10101010--5--55555--5555--7--77777--7777--3--33333--3333--|
|-8---8-8-8-8-8---8-8-8-8---3--33333--3333--5--55555--5555--1--11111--1111--|
|-8---8-8-8-8-8---8-8-8-8---3--33333--3333--5--55555--5555--1--11111--1111--|


Both guitars
|-------------------------------------------|
|-------------------------------------------|
|-------------------------------------------| 2x's
|-8---------3---------5---------1-----------|
|-8-(12x's)-3-(12x's)-5-(12x's)-1-(12x's)---|
|-8---------3---------5---------1-----------|

(Breakdown C)
|---------------------------|
|---------------------------|
|---------------------------| 4x's
|-0~-0~-0~--0~-0-000000000--|
|-0~-0~-0~--0~-0-000000000--|
|-0~-0~-0~--0~-0-000000000--|
  .  .  .   .  . .........

|------|
|------|
|------| 
|--0~--|
|--0~--|
|--0~--|
   .

guitar 1
|---------------------------------------------------------------------|
|----------------------------------------------------------------10---|
|-----10-9-0h7h9p0-10p0-12p0-10p0-9b------10-9-0h7h9p0-10p0-12p0------| 6x's 
|-0-0---------------------------------0-0-----------------------------|
|-0-0---------------------------------0-0-----------------------------|
|-0-0---------------------------------0-0-----------------------------|
  . .                                 . .           

guitar 2
|-------------------------------------------------------------------|
|-------------------------------------------------------------------|
|-------------------------------------------------------------------| 4x's 
|-0-0---------------------------------0-0----------------------7----|
|-0-0-8-7-0h5h7p0-8p0-10p0-8p0-7b-----0-0-8-7-0h5h7p0-8p0-10p0------|
|-0-0---------------------------------0-0---------------------------|
  . .                                 . .           

guitar 1
|---------------------------------------------------------------------------------------|
|---------------------------------------------------------------------------------------|
|---------------------------------------------------------------------------------------| 2x's
|-00-000-000-00000--88-888-888-88888--77-777-777-77777--1010-101010-101010-1010101010---|
|-00-000-000-00000--88-888-888-88888--77-777-777-77777--1010-101010-101010-1010101010---|
|-00-000-000-00000--88-888-888-88888--77-777-777-77777--1010-101010-101010-1010101010---|
  .. ... ... .....  .. ... ... .....  .. ... ... .....  . .  . . .  . . .  . . . . .

guitar 2
|---------------------------------------------------------------------------------------|
|---------------------------------------------------------------------------------------|
|---------------------------------------------------------------------------------------| 2x's 
|-00-000-000-00000--88-888-888-88888--77-777-777-77777--1010-101010-101010-1010101010---|
|---------------------------------------------------------------------------------------|
|---------------------------------------------------------------------------------------|

guitar 1
|-----------------------------------------------------------------------------------------|
|---------------------------------------------------------------------------------4h6h7---|
|---------------------------------------------------------------------------5h7h8---------| 4x's 
|-000-------5h7h8-000-------5h7h8-000-------000-------5h7h8-000-------5h7h8---------------|
|-000-5h7h8-------000-5h7h8-------000-5h7h8-000-5h7h8-------000-5h7h8---------------------|
|-000-------------000-------------000-------000-------------000---------------------------|
  ...             ...             ...       ...             ...

guitar 2
|-----------------------------------------------------------------------|
|-----------------------------------------------------------------------|
|-----------------------------------------------------------------------| 
|-000-------------000-------------000-------000-------------000---777---|
|-000-------------000-------------000-------000-------------000---777---|
|-000-------------000-------------000-------000-------------000---777---|
  ...             ...             ...       ...             ...   ...   

|-----------------------------------------------------------------------|
|-----------------------------------------------------------------------|
|-----------------------------------------------------------------------| 
|-888-------------888-------------888-------888-------------888---555---|
|-888-------------888-------------888-------888-------------888---555---|
|-888-------------888-------------888-------888-------------888---555---|
  ...             ...             ...       ...             ...   ...
repeat 2x's
Tap to rate this tab
# A B C D E F G H I J K L M N O P Q R S T U V W X Y Z