Guitaretab - guitar tabs
Song name
# A B C D E F G H I J K L M N O P Q R S T U V W X Y Z

Misc Unsigned Bands - Six-string Symphony - The Music tab

The Music
Six-String Symphony

♪ = 126

Section Layout
1.	Pre-Intro / Outro
2.	Intro
3.	Verse A, B, A, C
4.	Solo A-C
5.	Pick Up A-B
6.	Verse A, B, A, C
7.	Outro

Strum Patterns
1-|    Verse A   = D D-U-D D-U-D D-U-D
2-|    Verse B   = D X-X-D X-D~ D-U~ D-U-D-U (D)
3-|    Verse C   = D-U-D-U-D D-U-D-U-D D (X-X-D x7)
4.	Pick Up B = D~ D X-X (for each chord)

All of the chords in the Pre-Intro, Intro, and Pick Up A are single strummed.

When you get to Verse A, the chords are strummed really fast in 3s, but keeping the same tempo.

During Verse B and Verse C, itíll be really hard to get the strumming right, so Iíve 
to write it out as best as I could.

This song is Instrumental.

During the Verse, Solo, and Pick Up, the guitar is barred on the 2nd fret.

During Verse A, on the last 2 measures of it, there are 2 small tweaks that I didnít 
They arenít all that important, so I didnít take the time to tab it.

The chords in the Verse and Pick Up are centered on the 2nd fret. In other words, the 
fret acts as 0.


PRE-INTRO/OUTRO
Guitar 1
E|-2--------|-2--------||-3--------|-3--------|
B|---3---3--|---3---3--||---0---0--|---0---0--|
G|--2-2-2-2-|--2-2-2-2-||--0-0-0-0-|--0-0-0-0-|  X2
D|-----0----|-----0----||-----0----|-----0----|
A|----------|----------||----------|----------|
E|----------|----------||----------|----------|
Guitar 2
 |  D~      | D~       || G~       | G~       |


E|-0--------|-0--------||-0--------|-0--------|
B|---1---1--|---1---1--||---1---1--|---1---1--|
G|--2-2-2-2-|--2-2-2-2-||--0-0-0-0-|--0-0-0-0-|
D|-----2----|-----2----||-----2----|-----2----|
A|----------|----------||----------|----------|
E|----------|----------||----------|----------|

 | Am~      | Am~      || C~       | C~       |


E|-2--------|-2--------||-3--------|-3--------|
B|---3---3--|---3---3--||---0---0--|---0---0--|
G|--2-2-2-2-|--2-2-2-2-||--0-0-0-0-|--0-0-0-0-|  X2
D|-----0----|-----0----||-----0----|-----0----|
A|----------|----------||----------|----------|
E|----------|----------||----------|----------|

 |  D~      | D~       || G~       | G~       |


E|-0--------|-0--------||-0--------|-0--------|
B|---1---1--|---1---1--||---1---1--|---1---1--|
G|--2-2-2-2-|--2-2-2-2-||--0-0-0-0-|--0-0-0-0-|
D|-----2----|-----2----||-----2----|-----2----|
A|----------|----------||----------|----------|
E|----------|----------||----------|----------|

 | Am~      | Am~      || C~       | C~       |


E|-2--------|-2--------||-3--------|-3--------|
B|---3---3--|---3---3--||---0---0--|---0---0--|
G|--2-2-2-2-|--2-2-2-2-||--0-0-0-0-|--0-0-0-0-|  X2
D|-----0----|-----0----||-----0----|-----0----|
A|----------|----------||----------|----------|
E|----------|----------||----------|----------|

 |  D~      | D~       || G~       | G~       |

E|-2-2-2----|-2-2-2----||-3--------|-3--------|
B|-------3--|-------3--||---0---0--|---0---0--|
G|--2-2-2---|--2-2-2---||--0-0-0-0-|--0-0-0-0-|
D|----------|----------||-----0----|-----0----|
A|----------|----------||----------|----------|
E|----------|----------||----------|----------|

 |  D~      | D~       || G~       | G~       |

                                 (slow down a bit here)
E|-2-2-2----|-2-3-2----||-3--------|-3--------|
B|-------3--|-------3--||---0---0--|---0---0--|
G|--2-2-2---|--2-2-2---||--0-0-0-0-|--0-0-0-0-|
D|----------|----------||-----0----|-----0----|
A|----------|----------||----------|----------|
E|----------|----------||----------|----------|

 |  D~      | D~       || G~       | G~       |

(Both Guitars)
 | G~       |          ||          |          |
[ Tab from: http://www.guitaretab.com/m/misc-unsigned-bands/117288.html ]
INTRO
Guitar 1
 | Am~      | Am~      || E~       | E~       |
Guitar 2
E|-2-2-2-2--|-2-2-2-2--||-2-2-2-2--|-2-2-2-2--|
B|----------|----------||----------|----------|
G|--4---4---|--4---4---||--3---3---|--3---3---|  X4
D|----4---4-|----4---4-||----4---4-|----4---4-|
A|----------|----------||----------|----------|
E|----------|----------||----------|----------|


VERSE A
Guitar 1
 | Am       |          || E        |          |
Guitar 2
E|-2-2-2-2--|-2-2-2-2--||-2-2-2-2--|-2-2-2-2--|
B|----------|----------||----------|----------|
G|--4---4---|--4---4---||--3---3---|--3---3---|  X4
D|----4---4-|----4---4-||----4---4-|----4---4-|
A|----------|----------||----------|----------|
E|----------|----------||----------|----------|


VERSE B
Guitar 1 & 2
 | G   D  Em|          || G   D  Em|      Am  |  X2


VERSE C
Guitar 1 & 2
 | G        | D        || Am E Am E| Am D E Am|  X3 (slowly on last measure)


SOLO A
Guitar 1
E|-2-4H5P4-7~--|-7-5-4---4---||------------|
B|-------------|-------7---7-||-5-4-5------|
G|-------------|-------------||-------6-4--|
D|-------------|-------------||------------|

E|-------------|
B|-------------|  X4
G|-4H6P4-4H7P4-|
D|-------------|

E|-----------|
B|-----------|
G|-7-6-4-4-4-|  X3
D|------6-6--|
A|-----------|
E|-----------|

E|------------------------|
B|------------------------|
G|---6-------7-6~-4--6----|
D|-7--4~-6-7--------7--4~-|
A|------------------------|
E|------------------------|

E|----------------|
B|----------------|
G|----------------|  X2
D|-4-4H6P4--------|
A|---------5-7-4~-|
E|----------------|

G|-------------|
D|-------------|
A|-4-7-4-5-4---|
E|-----------7-|

G|-------------||      |-----|
D|-------------||  X3  |-4~~-|
A|---7~--7-5-4~||      |-5~~-|
E|-5---5-------||      |-----|


SOLO B
Guitar 1
E|--------------|--------------||--------------|---------------|
B|--------------|--------------||--------------|---------------|
G|--------------|--------------||--------------|---------------|
D|--------------|--------------||--------------|-4~4-4--6~6--7~|
A|---7~--7-5-4~-|---7~--7-5-4~-||---7~--7-5-4--|-5~5-5--4~4--7~|
E|-5---5--------|-5---5--------||-5---5--------|---------------|

Guitar 2 (echoes first two Guitar 1 measures)
E|--------------|------7-7-5-4-||--------------|---------------|
B|----5-5H7P5~5-|--------------||--------------|---------------|
G|--------------|--------------||--------------|---------------|
D|--------------|--------------||--------------|-4~4-4--6~6--7~|
A|--------------|--------------||--------------|-5~5-5--4~4--7~|
E|--------------|--------------||--------------|---------------|


SOLO C
Guitar 1
E|-----------------|-----------------||-----------------|
B|-------------5-7~|-5-7-5-----------||-----5-7~-5-7-5--|
G|-----------6-----|------6-7-6-4~---||---6-------------|
D|---7--7--7-------|-----------------||-7---------------|
A|-7--7--7---------|-----------------||-----------------|
E|-----------------|-----------------||-----------------|

 (gradually go slower)
E|-4H5P4-4H7P4-|
B|-------------|
G|-------------|  X10
D|-------------|
A|-------------|
E|-------------|


PICK UP A
Guitar 1
E|---5-----5-|---5-----5-|---2-----2-|----4------4H5P4-|
B|-----------|-----------|-----------|-----------------|
G|-----------|-----------|-----------|-----------------|  X4
D|-----------|-----------|-----------|-----------------|
A|-----------|-----------|-----------|-----------------|
E|-5---5-5---|-5---5~5---|-2---2-2---|-4----4~4--------|

Guitar 2 (starts after first repeat)
E|-----------|-----------|-----------|-----------|
B|-----2-----|-----2-----|-----2-----|-----5-----|
G|----2-2----|----2-2----|----2-2----|----4-4----|  X2
D|---2---2---|---2---2---|---4---4---|---2---2---|
A|--4-----4--|--4-----4--|--4-----4--|--2-----2--|
E|-5---------|-5---------|-2---------|-2---------|


 | G         | G         | Em        | D         |  X2

E|-----------|-----------|-----------|-----------|
B|-----2-----|-----2-----|-----2-----|-----5-----|
G|----2-2----|----2-2----|----2-2----|----4-4----|  X2
D|---2---2---|---2---2---|---4---4---|---2---2---|
A|--4-----4--|--4-----4--|--4-----4--|--2-----2--|
E|-5---------|-5---------|-2---------|-2---------|


PICK UP B
 |G          |G          |Em   (D)   |Em   (D)   |  X3
Related for Six-string Symphony - The Music tab