Song name
# A B C D E F G H I J K L M N O P Q R S T U V W X Y Z

Misc Unsigned Bands - Clouds And Cities - All Across Virginia tab

This is my first tab and it was on a song that is very new and i was the first to tab it 
no one else had done it. Leave karma please and thanks!

Tuning -  Drop d
Slide - means to hold and slide up
h - hammer on or off

Intro
(originally for piano but i did my best)
e-------0-------------0------------0-----------0-------0-------------|
B-----3---3---------3---3--------3---3-------------------------------|
G---2-------2-----2-------2----2-------2-----2-------2---------------|
D-0-------------2------------4-------------4-------2-----------------|
A--------------------------------------------------------------------|
D--------------------------------------------------------------------|

e-------0-------------0----------------------------------------------|
B-----3---3----------------------------------------------------------|
G---2-------2-----2h1------------------------------------------------|
D-0-------------2----------------------------------------------------|
A--------------------------------------------------------------------|
D--------------------------------------------------------------------|

(in between the intro-chorus and verse-chorus there is no real guitar
part)

Chorus
(only slide on the first chorus)
"I spent my summers drinking jack and coke on the road.."
e---------------------------------------------------------------------|
B---------------------------------------------------------------------|
G---------------------------------------------------------------------|
D-7-----0-----7-----0-----4-----2-----4--2--0---1slide7---------------|
A-7-x8--0-x8--7-x8--0-x8--4-x8--2-x8--4--2--0-------------------------|
D-7-----0-----7-----0-----4-----2-----4--2--0-------------------------|

Bridge
(right after second chorus)
e---------------------------------------------------------------------|
B---------------------------------------------------------------------|
G---------------------------------------------------------------------|
D-4-----2-----0-----4-----2-----0-----2-2-2---------------------------|
A-4-x4--2-x4--0-x8--4-x4--2-x4--0-x4--2-2-2---------------------------|
D-4-----2-----0-----4-----2-----0-----2-2-2---------------------------|


e---------------------------------------------------------------------|
B---------------------------------------------------------------------|
G---------------------------------------------------------------------|
D-4-----2-----0-----4-----2-----0------2-----0-----2------------------|
A-4-x4--2-x4--0-x8--4-x4--2-x4--0-x16--2-x8--0-x8--2-x8---------------|
D-4-----2-----0-----4-----2-----0------2-----0-----2------------------|

"So come on Come on!"
Chorus^

Ending solo
(not really a solo just the melody behind the rhythm)
e-12-------12-14h12---------------------------------------------------|
B----10-9-----------10-9h10-------------------------------------------|
G---------------------------------------------------------------------|
D---------------------------------------------------------------------|
A---------------------------------------------------------------------|
D---------------------------------------------------------------------|
Tap to rate this tab
# A B C D E F G H I J K L M N O P Q R S T U V W X Y Z