Song name
# A B C D E F G H I J K L M N O P Q R S T U V W X Y Z

Misc Unsigned Bands - Dylan Ransom - Angel tab

Help us improve GuitareTab! Take a short survey!
eb|-----------------------------------------|
Bb|-----------------------------------------|
Gb|-----------------------------------------|
Db|-0-1------4-5------8-9-------12-13-------|
Ab|-----2--------6--------10----------14----|
Eb|-------3--------7---------11----------15-|

Riff 2
eb|---------------------------------|
Bb|---------------------------------|
Gb|---------------------------------|
Db|-----2-----2---------------------|
Ab|---2-----3---3-2-2-----2---------|
Eb|-0-----0---------0-0-0-0-0-0-0-0-|

eb|----------------------------------|
Bb|----------------------------------|
Gb|----------------------------------|
Db|-----2-----2----------------------|
Ab|---2-----3---3-2-2-----2---/4-3-2-|
Eb|-0-----0---------0-0-0-0-0-/5-4-3-|
 
eb|---------------------------|
Bb|---------------------------|
Gb|---------------------------|
Db|-----2-----2---------------|
Ab|---2-----3---3-2-2-----2---|
Eb|-0-----0---------0-0-0-0-0-|

eb|----------------------------------------|
Bb|----------------------------------------|
Gb|----------------------------------------|
Db|-----------------------7-------7--------|
Ab|-/4-3-2--/4-3-2--/4-3--5-------3------2-|
Eb|-/5-4-3--/5-4-3--/5-4------0-0----3b4-0-|

Riff 2a
eb|---------------------------------|
Bb|---------------------------------|
Gb|---------------------------------|
Db|-----2-----2---------------------|
Ab|---2-----3---3-2-2-----2---------|
Eb|-0-----0---------0-0-0-0-0-0-0-0-|
                   
eb|----------------------------------|
Bb|----------------------------------|
Gb|----------------------------------|
Db|-----2-----2----------------------|
Ab|---2-----3---3-2-2-----2---/4-3-2-|
Eb|-0-----0---------0-0-0-0-0-/5-4-3-|

eb|---------------------------------|
Bb|---------------------------------|
Gb|---------------------------------|
Db|-----2-----2---------------------|
Ab|---2-----3---3-2-2-----2---------|
Eb|-0-----0---------0-0-0-0-0-0-0-0-|

eb|---------------------------------|
Bb|---------------------------------|
Gb|---------------------------------|
Db|-----2-----2---7-------7---------|
Ab|---2-----3---3-5-------3-------2-|
Eb|-0-----0-----------0-0----3b4--0-|

Riff 3
eb|----------------------------------|
Bb|----------------------------------|
Gb|----------------------------------|
Db|-5---4-5----9-7-5-5-----2---4-4---|
Ab|-7---5-7---10-9-7-7-----3---5-5---|
Eb|---0-----0----------0-0---0-----0-|

eb|--------------------------------|
Bb|--------------------------------|
Gb|--------------------------------|
Db|-5---4-5----9\--2------4--------|
Ab|-7---5-7---10\--3------5--------|
Eb|---0-----0---------0-0----0-0-0-|

eb|----------------------------------|
Bb|----------------------------------|
Gb|----------------------------------|
Db|-5---4-5----9-7-5-5-----2---4-4---|
Ab|-7---5-7---10-9-7-7-----3---5-5---|
Eb|---0-----0----------0-0---0-----0-|

eb|----------------------------------------------|
Bb|----------------------------------------------|
Gb|----------------------------------------------|
Db|-5---4-5----9\--5------5------2------5--------|
Ab|-7---5-7---10\--3------2------0------2------2-|
Eb|---0-----0---------0-0----0-0----0-0----3b4-0-|

Play Riff 2
Play Riff 1
Play Riff 3

Riff 4

eb|-----------------------------------------------|
Bb|-----------------------------------------------|
Gb|-----------------------------------------------|
Db|-----------------------------------------------|
Ab|-2-2-2---2-2-2---3-3-3---3-3-3---4-4-4---4-4-4-|
Eb|-0-0-0---0-0-0---1-1-1---1-1-1---2-2-2---2-2-2-|

eb|-----------------------------------------------|
Bb|-----------------------------------------------|
Gb|-----------------------------------------------|
Db|-----------------------------------------------|
Ab|-5-5-5---5-5-5---6-6-6---6-6-6---7-7-7---7-7-7-|
Eb|-3-3-3---3-3-3---4-4-4---4-4-4---5-5-5---5-5-5-|

eb|----------------------------|
Bb|----------------------------|
Gb|----------------------------|
Db|-------------7-------7------|
Ab|-8-8-8---8-8-5-------3------|
Eb|-6-6-6---6-6-----0-0----3-0-|

Riff 5 (Solo Rhythm)
eb|------------------------------|
Bb|------------------------------|
Gb|------------------------------|
Db|-9-------------9-------7------|
Ab|-7-------------5-------3------|
Eb|-----0-0-0-0-0-----0-0----3-0-|

Riff 6 (Solo Rhythm)
eb|----------------------------------|
Bb|----------------------------------|
Gb|----------------------------------|
Db|------2-----2-----0-1-------------|
Ab|-2--2-----3---3-2-----2-----------|
Eb|-0------0---------------3-2-1-2-3-|

eb|----------------------------------|
Bb|----------------------------------|
Gb|----------------------------------|
Db|-----2-----2-----0-1------4-5-----|
Ab|---2-----3---3-2-----2--------6---|
Eb|-0-----0---------------3--------7-|

eb|----------------------------------|
Bb|----------------------------------|
Gb|----------------------------------|
Db|------4-----4-----2-3-------------|
Ab|-4--4-----5---5-4-----4-----------|
Eb|-2------2---------------5-4-3-4-5-|

eb|----------------------------------|
Bb|----------------------------------|
Gb|----------------------------------|
Db|------4-----4-----2-3-------------|
Ab|-4--4-----5---5-4-----4-----------|
Eb|-2------2---------------5-4-3-2-1-|

Solo
eb|---------------------------------------------|
Bb|---------------------------------------------|
Gb|------------------------------/16-14--12-11~-|
Db|-9--/14\--9-9b10~~----9--/14-----------------|
Ab|---------------------------------------------|
Eb|---------------------------------------------|

eb|--------------------0-7-12-0-7-12-0-7-10-|
Bb|-------------0-8-12----------------------|
Gb|-7-7--0-9-12-----------------------------|
Db|-----------------------------------------|
Ab|-----------------------------------------|
Eb|-----------------------------------------|

eb|-0-7-10-0-10-14-0-12-14-15-14h15p14p12-14-12--12---|
Bb|--------------------------------------------15--15-|
Gb|---------------------------------------------------|
Db|---------------------------------------------------|
Ab|---------------------------------------------------|
Eb|---------------------------------------------------|

eb|----------------------|
Bb|-15b17r15-12-15-12~~--|
Gb|----------------------|
Db|----------------------|
Ab|----------------------|
Eb|----------------------|

eb|----12-12h17p12---------------------------|
Bb|-15------------15p12--12---------------14-|
Gb|--------------------14--14b16r14-12----14-|
Db|------------------------------------14----|
Ab|------------------------------------------|
Eb|------------------------------------------|

eb|-----------------------------|
Bb|-----------------------------|
Gb|-12-14-12--(12)b13r12b13r12\-|
Db|-----------------------------|
Ab|-----------------------------|
Eb|-----------------------------|

eb|----------------------------------------------------|
Bb|----------------------------------------------------|
Gb|-3b4r3b4-3b4-3b4-3b4-{3}{3}{3}{3}{3}{3}{3}{3}{3}{3}-|
Db|----------------------------------------------------|
Ab|----------------------------------------------------|
Eb|----------------------------------------------------|

eb|----------------------------------------------|
Bb|----------------------------------------------|
Gb|-3h4p3p0------4-----4-------------------------|
Db|---------2--5---2-5---5-2--6-7------9-10------|
Ab|-------------------------------9-6-------12-9-|
Eb|----------------------------------------------|

eb|--------------------------------------|
Bb|--------------------------------------|
Gb|---------------------------/4b5r4b5~~-|
Db|-4/7-7-7-7-7-7/9-9-9-9-9\-------------|
Ab|--------------------------------------|
Eb|--------------------------------------|

eb|------------------------------17b19-17b19r17b19r17b19r17-|
Bb|---------------------16h17p14----------------------------|
Gb|-4-4-4/14-14-14-16~~-------------------------------------|
Db|---------------------------------------------------------|
Ab|---------------------------------------------------------|
Eb|---------------------------------------------------------|

eb|-19h20p19p17-19p17--------------17-19-|
Bb|------------------20-19-17-19-20------|
Gb|--------------------------------------|
Db|--------------------------------------|
Ab|--------------------------------------|
Eb|--------------------------------------|

eb|-22b24-22b24-22b24~~~\-|
Bb|-----------------------|
Gb|-----------------------|
Db|-----------------------|
Ab|-----------------------|
Eb|-----------------------|

Play Riff 2a
Play Riff 2
Play Riff 1


Riff 3a
eb|----------------------------------|
Bb|----------------------------------|
Gb|----------------------------------|
Db|-5---4-5----9-7-5-5-----2---4-4---|
Ab|-7---5-7---10-9-7-7-----3---5-5---|
Eb|---0-----0----------0-0---0-----0-|

eb|--------------------------------|
Bb|--------------------------------|
Gb|--------------------------------|
Db|-5---4-5----9\--2------4--------|
Ab|-7---5-7---10\--3------5--------|
Eb|---0-----0---------0-0----0-0-0-|

eb|----------------------------------|
Bb|----------------------------------|
Gb|----------------------------------|
Db|-5---4-5----9-7-5-5-----2---4-4---|
Ab|-7---5-7---10-9-7-7-----3---5-5---|
Eb|---0-----0----------0-0---0-----0-|

eb|--------------------------------------------|
Bb|--------------------------------------------|
Gb|--------------------------------------------|
Db|-5---4-5----9\--5------5------2------5------|
Ab|-7---5-7---10\--3------2------0------2------|
Eb|---0-----0---------0-0----0-0----0-0----3-0-|

eb|-----------------------------|
Bb|-----------------------------|
Gb|-----------------------------|
Db|-5------5------2------5------|
Ab|-3------2------0------2------|
Eb|----0-0----0-0----0-0----3-0-|

eb|------------------------------------|
Bb|------------------------------------|
Gb|------------------------------------|
Db|-5-5---4-5----9-7-5-5-----2---4-4---|
Ab|-7-7---5-7---10-9-7-7-----3---5-5---|
Eb|-----0-----0----------0-0---0-----0-|

eb|--------------------------------|
Bb|--------------------------------|
Gb|--------------------------------|
Db|-5---4-5----9\--2------4--------|
Ab|-7---5-7---10\--3------5--------|
Eb|---0-----0---------0-0----0-0-0-|

eb|----------------------------------|
Bb|----------------------------------|
Gb|----------------------------------|
Db|-5---4-5----9-7-5-5-----2---4-4---|
Ab|-7---5-7---10-9-7-7-----3---5-5---|
Eb|---0-----0----------0-0---0-----0-|

eb|--------------------------------------------|
Bb|--------------------------------------------|
Gb|--------------------------------------------|
Db|-5---4-5----9\--5------5------2------5------|
Ab|-7---5-7---10\--3------2------0------2------|
Eb|---0-----0---------0-0----0-0----0-0----3b4-|

eb|----------------------------------------|
Bb|----------------------------------------|
Gb|----------------------------------------|
Db|-0-1------4-5------8-9------------------|
Ab|-----2--------6--------10-------------2-|
Eb|-------3--------7---------11--2-1-2-3-0-|
Related for Dylan Ransom - Angel tab