Guitaretab - guitar tabs
Song name
# A B C D E F G H I J K L M N O P Q R S T U V W X Y Z

Misc Unsigned Bands - Heroes Wear Masks - Where The World Cant Follow tab

Title: Where The World Can't Follow
Composer: Music By Jordan Crosse
Lyricist: Lyrics By Sam Francis
Copyright: Copyright 





                       4/4

                     E|-----------------|-----------------|-----------------|
                     B|-----------------|-----------------|-----------------|
                     G|-----------------|-----------------|-----------------|
Electric Guitar      D|-----------------|-----------------|-----------------|
                     A|-----------------|-----------------|-----------------|
                     E|-----------------|-----------------|-----------------|
                      |
                      |
                      |
                      |
                      |
                      |
                     E|-----------------|-----------------|-----------------|
                     B|-----------------|-----------------|-----------------|
                     G|-----------------|-----------------|-----------------|
Electric Guitar      D|-----------------|-----------------|-----------------|
                     A|-----------------|-----------------|-----------------|
                     E|-----------------|-----------------|-----------------|
                      |
                      |
                      |
                      |
                      |
                      | H.          Q     H.          Q     H.          Q
                     G|-----------------|-----------------|-1-----------1---|
                     D|-----------------|-1-----------1---|-----------------|
4-string Bass Guitar A|-3-----------3---|-----------------|-----------------|
                     E|-----------------|-----------------|-----------------|






   Q.    Q.    Q     Q.    Q.    Q     Q.    Q.    Q     W
E|-----------------|-----------------|-----------------|-----------------|
B|-----------------|-----------------|-----------------|-----------------|
G|-------8-----7---|-------8---------|-8-----10----11--|-10--------------|
D|-----------------|-10----------10--|-----------------|-----------------|
A|-----------------|-----------------|-----------------|-----------------|
E|-----------------|-----------------|-----------------|-----------------|
 |
 |
 |
 |
 |
 |                   W                 W
E|-----------------|-3+--------------|-3---------------|-----------------|
B|-----------------|-4+--------------|-4---------------|-----------------|
G|-----------------|-5+--------------|-5---------------|-----------------|
D|-----------------|-5+--------------|-5---------------|-----------------|
A|-----------------|-3+--------------|-3---------------|-----------------|
E|-----------------|-----------------|-----------------|-----------------|
 |
 |
 |
 |
 |
 | Q.    Q.    Q     H.          Q     H.          Q     H.          Q
G|-0---------------|-----------------|-----------------|-1-----------1---|
D|-------1-----0---|-----------------|-1-----------1---|-----------------|
A|-----------------|-3-----------3---|-----------------|-----------------|
E|-----------------|-----------------|-----------------|-----------------|






                     Q   E E E. E.  E   E  E E Q   E  Q     Q   E E  E Q    E
E|-----------------|------------------|-------------------|-------------------|
B|-----------------|------------------|-------------------|-------------------|
G|-----------------|-----8---8--10--11|-10-8---8----------|-----8----8-10---8+|
D|-----------------|-10----10---------|------10----10-8---|-10----10----------|
A|-----------------|------------------|-------------------|-------------------|
E|-----------------|------------------|-------------------|-------------------|
 |
 |
 |
 |
 |
 |                   H.           Q     Q    E Q   E  E E   Q   E E  E E  E E
E|-----------------|-3------------3---|-6------6---6--6-6-|-4---4-4--4-4--4-4-|
B|-----------------|-4------------4---|-8------8---8--8-8-|-4---4-4--4-4--4-4-|
G|-----------------|-5------------5---|-8------8---8--8-8-|-5---5-5--5-5--5-5-|
D|-----------------|-5------------5---|-8------8---8--8-8-|-6---6-6--6-6--6-6-|
A|-----------------|-3------------3---|-6------6---6--6-6-|-6---6-6--6-6--6-6-|
E|-----------------|------------------|-------------------|-4---4-4--4-4--4-4-|
 |
 |
 |
 |
 |
 | Q   Q   H         H.           Q     Q    E Q   E  Q     Q   E E  E E  E E
G|-0---------------|------------------|-------------------|-1---1-1--1-1--1-1-|
D|-----------------|------------------|-1------1---1--1---|-------------------|
A|-----------------|-3------------3---|-------------------|-------------------|
E|-----------------|------------------|-------------------|-------------------|






   E E E  E  E  E E  E   Q   E E  E.  E.  E    E  E E Q   E  Q
E|---8-----------------|---------------------|-------------------|
B|-----11-8------------|---------------------|-------------------|
G|-8---------10-8------|-----8----8---10--11+|-10-8---8----------|
D|----------------10-8-|-10----10------------|------10----10-8---|
A|---------------------|---------------------|-------------------|
E|---------------------|---------------------|-------------------|
 |
 |
 |
 |
 |
 | Q   E  E  E  E E  E   Q   E E  E  E  Q      Q    E Q   E  E E
E|-3---3--3--3--3-3--3-|-3---3-3--3--3--3----|-6------6---6--6-6-|
B|-3---3--3--3--3-3--3-|-4---4-4--4--4--4----|-8------8---8--8-8-|
G|-4---4--4--4--4-4--4-|-5---5-5--5--5--5----|-8------8---8--8-8-|
D|-5---5--5--5--5-5--5-|-5---5-5--5--5--5----|-8------8---8--8-8-|
A|-5---5--5--5--5-5--5-|-3---3-3--3--3--3----|-6------6---6--6-6-|
E|-3---3--3--3--3-3--3-|---------------------|-------------------|
 |
 |
 |
 |
 |
 | Q.     Q.      Q      H.             Q      Q    E Q   E  Q
G|-0-------------------|---------------------|-------------------|
D|--------1-------0----|---------------------|-1------1---1--1---|
A|---------------------|-3--------------3----|-------------------|
E|---------------------|---------------------|-------------------|






   Q   E E  E Q    E   E  Q   Q    E E E   Q   Q   H
E|-------------------|--------8----8-8-8-|-8---------------|-----------------|
B|-----------------8+|-8--11-------------|-----------------|-----------------|
G|-----8----8-10-----|-------------------|-----------------|-----------------|
D|-10----10----------|-------------------|-----------------|-----------------|
A|-------------------|-------------------|-----------------|-----------------|
E|-------------------|-------------------|-----------------|-----------------|
 |
 |
 |
 |
 |
 | Q   E E  E E  E E   Q    E E  E E E E   H.          Q     Q   E Q   E E E
E|-4---4-4--4-4--4-4-|-3----3-3--3-3-3-3-|-3-----------3---|-6-----6---6-6-6-|
B|-4---4-4--4-4--4-4-|-3----3-3--3-3-3-3-|-4-----------4---|-8-----8---8-8-8-|
G|-5---5-5--5-5--5-5-|-4----4-4--4-4-4-4-|-5-----------5---|-8-----8---8-8-8-|
D|-6---6-6--6-6--6-6-|-5----5-5--5-5-5-5-|-5-----------5---|-8-----8---8-8-8-|
A|-6---6-6--6-6--6-6-|-5----5-5--5-5-5-5-|-3-----------3---|-6-----6---6-6-6-|
E|-4---4-4--4-4--4-4-|-3----3-3--3-3-3-3-|-----------------|-----------------|
 |
 |
 |
 |
 |
 | Q   E E  E E  E E   Q.     Q.     Q     H.          Q     Q   E Q   E Q
G|-1---1-1--1-1--1-1-|-0-----------------|-----------------|-----------------|
D|-------------------|--------1------0---|-----------------|-1-----1---1-1---|
A|-------------------|-------------------|-3-----------3---|-----------------|
E|-------------------|-------------------|-----------------|-----------------|







E|-----------------|------------------|-----------------|-----------------|
B|-----------------|------------------|-----------------|-----------------|
G|-----------------|------------------|-----------------|-----------------|
D|-----------------|------------------|-----------------|-----------------|
A|-----------------|------------------|-----------------|-----------------|
E|-----------------|------------------|-----------------|-----------------|
 |
 |
 |
 |
 |
 | Q   E E E E E E   Q   E E  E E E E   Q   E E E E Q     Q   E Q   E E E
E|-4---4-4-4-4-4-4-|-3---3-3--3-3-3-3-|-3---3-3-3-3-3---|-6-----6---6-6-6-|
B|-4---4-4-4-4-4-4-|-3---3-3--3-3-3-3-|-4---4-4-4-4-4---|-8-----8---8-8-8-|
G|-5---5-5-5-5-5-5-|-4---4-4--4-4-4-4-|-5---5-5-5-5-5---|-8-----8---8-8-8-|
D|-6---6-6-6-6-6-6-|-5---5-5--5-5-5-5-|-5---5-5-5-5-5---|-8-----8---8-8-8-|
A|-6---6-6-6-6-6-6-|-5---5-5--5-5-5-5-|-3---3-3-3-3-3---|-6-----6---6-6-6-|
E|-4---4-4-4-4-4-4-|-3---3-3--3-3-3-3-|-----------------|-----------------|
 |
 |
 |
 |
 |
 | Q   E E E E E E   Q.    Q.     Q     H.          Q     Q   E Q   E Q
G|-1---1-1-1-1-1-1-|-0----------------|-----------------|-----------------|
D|-----------------|-------1------0---|-----------------|-1-----1---1-1---|
A|-----------------|------------------|-3-----------3---|-----------------|
E|-----------------|------------------|-----------------|-----------------|







E|-----------------|------------------|-----------------|-----------------|
B|-----------------|------------------|-----------------|-----------------|
G|-----------------|------------------|-----------------|-----------------|
D|-----------------|------------------|-----------------|-----------------|
A|-----------------|------------------|-----------------|-----------------|
E|-----------------|------------------|-----------------|-----------------|
 |
 |
 |
 |
 |
 | Q   E E E E E E   Q   E E  E E E E   H.          Q     Q   E Q   E E E
E|-4---4-4-4-4-4-4-|-3---3-3--3-3-3-3-|-3-----------3---|-6-----6---6-6-6-|
B|-4---4-4-4-4-4-4-|-3---3-3--3-3-3-3-|-4-----------4---|-8-----8---8-8-8-|
G|-5---5-5-5-5-5-5-|-4---4-4--4-4-4-4-|-5-----------5---|-8-----8---8-8-8-|
D|-6---6-6-6-6-6-6-|-5---5-5--5-5-5-5-|-5-----------5---|-8-----8---8-8-8-|
A|-6---6-6-6-6-6-6-|-5---5-5--5-5-5-5-|-3-----------3---|-6-----6---6-6-6-|
E|-4---4-4-4-4-4-4-|-3---3-3--3-3-3-3-|-----------------|-----------------|
 |
 |
 |
 |
 |
 | Q   E E E E E E   Q.    Q.     Q     H.          Q     Q   E Q   E Q
G|-1---1-1-1-1-1-1-|-0----------------|-----------------|-----------------|
D|-----------------|-------1------0---|-----------------|-1-----1---1-1---|
A|-----------------|------------------|-3-----------3---|-----------------|
E|-----------------|------------------|-----------------|-----------------|







E|-----------------|------------------|-----------------|-----------------|
B|-----------------|------------------|-----------------|-----------------|
G|-----------------|------------------|-----------------|-----------------|
D|-----------------|------------------|-----------------|-----------------|
A|-----------------|------------------|-----------------|-----------------|
E|-----------------|------------------|-----------------|-----------------|
 |
 |
 |
 |
 |
 | Q   E E E E E E   Q   E E  E E E E   Q   E E E E Q     Q   E Q   E E E
E|-4---4-4-4-4-4-4-|-3---3-3--3-3-3-3-|-3---3-3-3-3-3---|-6-----6---6-6-6-|
B|-4---4-4-4-4-4-4-|-3---3-3--3-3-3-3-|-4---4-4-4-4-4---|-8-----8---8-8-8-|
G|-5---5-5-5-5-5-5-|-4---4-4--4-4-4-4-|-5---5-5-5-5-5---|-8-----8---8-8-8-|
D|-6---6-6-6-6-6-6-|-5---5-5--5-5-5-5-|-5---5-5-5-5-5---|-8-----8---8-8-8-|
A|-6---6-6-6-6-6-6-|-5---5-5--5-5-5-5-|-3---3-3-3-3-3---|-6-----6---6-6-6-|
E|-4---4-4-4-4-4-4-|-3---3-3--3-3-3-3-|-----------------|-----------------|
 |
 |
 |
 |
 |
 | Q   E E E E E E   Q.    Q.     Q     H.          Q     Q   E Q   E Q
G|-1---1-1-1-1-1-1-|-0----------------|-----------------|-----------------|
D|-----------------|-------1------0---|-----------------|-1-----1---1-1---|
A|-----------------|------------------|-3-----------3---|-----------------|
E|-----------------|------------------|-----------------|-----------------|






                                        W                 Q   E Q   E  Q
E|-----------------|------------------|-----------------|------------------|
B|-----------------|------------------|-----------------|------------------|
G|-----------------|------------------|-----------------|-8-----8------8---|
D|-----------------|------------------|-10--------------|-----10----10-----|
A|-----------------|------------------|-----------------|------------------|
E|-----------------|------------------|-----------------|------------------|
 |
 |
 |
 |
 |
 | Q   E E E E E E   Q   E E  E E E E   Q   E E E E Q     Q   E Q   E  E E
E|-4---4-4-4-4-4-4-|-3---3-3--3-3-3-3-|-3---3-3-3-3-3---|-6-----6---6--6-6-|
B|-4---4-4-4-4-4-4-|-3---3-3--3-3-3-3-|-4---4-4-4-4-4---|-8-----8---8--8-8-|
G|-5---5-5-5-5-5-5-|-4---4-4--4-4-4-4-|-5---5-5-5-5-5---|-8-----8---8--8-8-|
D|-6---6-6-6-6-6-6-|-5---5-5--5-5-5-5-|-5---5-5-5-5-5---|-8-----8---8--8-8-|
A|-6---6-6-6-6-6-6-|-5---5-5--5-5-5-5-|-3---3-3-3-3-3---|-6-----6---6--6-6-|
E|-4---4-4-4-4-4-4-|-3---3-3--3-3-3-3-|-----------------|------------------|
 |
 |
 |
 |
 |
 | Q   E E E E E E   Q.    Q.     Q     H.          Q     Q   E Q   E  Q
G|-1---1-1-1-1-1-1-|-0----------------|-----------------|------------------|
D|-----------------|-------1------0---|-----------------|-1-----1---1--1---|
A|-----------------|------------------|-3-----------3---|------------------|
E|-----------------|------------------|-----------------|------------------|






   H.          Q     Q.    Q.     Q     W                 Q   E Q   E  Q
E|-----------------|------------------|-----------------|------------------|
B|-9-----------8---|------------------|-----------------|------------------|
G|-----------------|-10----8------7---|-----------------|-8-----8----------|
D|-----------------|------------------|-10--------------|-----10----10-8---|
A|-----------------|------------------|-----------------|------------------|
E|-----------------|------------------|-----------------|------------------|
 |
 |
 |
 |
 |
 | Q   E E E E E E   Q   E E  E E E E   Q   E E E E Q     Q   E Q   E  E E
E|-4---4-4-4-4-4-4-|-3---3-3--3-3-3-3-|-3---3-3-3-3-3---|-6-----6---6--6-6-|
B|-4---4-4-4-4-4-4-|-3---3-3--3-3-3-3-|-4---4-4-4-4-4---|-8-----8---8--8-8-|
G|-5---5-5-5-5-5-5-|-4---4-4--4-4-4-4-|-5---5-5-5-5-5---|-8-----8---8--8-8-|
D|-6---6-6-6-6-6-6-|-5---5-5--5-5-5-5-|-5---5-5-5-5-5---|-8-----8---8--8-8-|
A|-6---6-6-6-6-6-6-|-5---5-5--5-5-5-5-|-3---3-3-3-3-3---|-6-----6---6--6-6-|
E|-4---4-4-4-4-4-4-|-3---3-3--3-3-3-3-|-----------------|------------------|
 |
 |
 |
 |
 |
 | Q   E E E E E E   Q.    Q.     Q     H.          Q     Q   E Q   E  Q
G|-1---1-1-1-1-1-1-|-0----------------|-----------------|------------------|
D|-----------------|-------1------0---|-----------------|-1-----1---1--1---|
A|-----------------|------------------|-3-----------3---|------------------|
E|-----------------|------------------|-----------------|------------------|






   H.          E E   W                  Q   E E E. E.  E   E  E E Q   E  Q
E|-----------------|------------------|------------------|-------------------|
B|-----------------|------------------|------------------|-------------------|
G|-----------------|------------------|-----8---8--10--11|-10-8---8----------|
D|-6-----------6-9-|-9----------------|-10----10---------|------10----10-8---|
A|-----------------|------------------|------------------|-------------------|
E|-----------------|------------------|------------------|-------------------|
 |
 |
 |
 |
 |
 | Q   E E E E E E   Q   E E  E E E E   H.           Q     Q    E Q   E  E E
E|-4---4-4-4-4-4-4-|-3---3-3--3-3-3-3-|-3------------3---|-6------6---6--6-6-|
B|-4---4-4-4-4-4-4-|-3---3-3--3-3-3-3-|-4------------4---|-8------8---8--8-8-|
G|-5---5-5-5-5-5-5-|-4---4-4--4-4-4-4-|-5------------5---|-8------8---8--8-8-|
D|-6---6-6-6-6-6-6-|-5---5-5--5-5-5-5-|-5------------5---|-8------8---8--8-8-|
A|-6---6-6-6-6-6-6-|-5---5-5--5-5-5-5-|-3------------3---|-6------6---6--6-6-|
E|-4---4-4-4-4-4-4-|-3---3-3--3-3-3-3-|------------------|-------------------|
 |
 |
 |
 |
 |
 | Q   E E E E E E   Q.    Q.     Q     H.           Q     Q    E Q   E  Q
G|-1---1-1-1-1-1-1-|-0----------------|------------------|-------------------|
D|-----------------|-------1------0---|------------------|-1------1---1--1---|
A|-----------------|------------------|-3------------3---|-------------------|
E|-----------------|------------------|------------------|-------------------|






   Q   E E  E Q    E   E E E  E  E  E E  E   Q   E E  E.  E.  E
E|-------------------|---8-----------------|---------------------|
B|-------------------|-----11-8------------|---------------------|
G|-----8----8-10---8+|-8---------10-8------|-----8----8---10--11+|
D|-10----10----------|----------------10-8-|-10----10------------|
A|-------------------|---------------------|---------------------|
E|-------------------|---------------------|---------------------|
 |
 |
 |
 |
 |
 | Q   E E  E E  E E   Q   E  E  E  E E  E   Q   E E  E  E  Q
E|-4---4-4--4-4--4-4-|-3---3--3--3--3-3--3-|-3---3-3--3--3--3----|
B|-4---4-4--4-4--4-4-|-3---3--3--3--3-3--3-|-4---4-4--4--4--4----|
G|-5---5-5--5-5--5-5-|-4---4--4--4--4-4--4-|-5---5-5--5--5--5----|
D|-6---6-6--6-6--6-6-|-5---5--5--5--5-5--5-|-5---5-5--5--5--5----|
A|-6---6-6--6-6--6-6-|-5---5--5--5--5-5--5-|-3---3-3--3--3--3----|
E|-4---4-4--4-4--4-4-|-3---3--3--3--3-3--3-|---------------------|
 |
 |
 |
 |
 |
 | Q   E E  E E  E E   Q.     Q.      Q      H.             Q
G|-1---1-1--1-1--1-1-|-0-------------------|---------------------|
D|-------------------|--------1-------0----|---------------------|
A|-------------------|---------------------|-3--------------3----|
E|-------------------|---------------------|---------------------|






   E  E E Q   E  Q     Q   E E  E Q    E   E  Q   Q    E E E   Q   Q   H
E|-------------------|-------------------|--------8----8-8-8-|-8---------------|
B|-------------------|-----------------8+|-8--11-------------|-----------------|
G|-10-8---8----------|-----8----8-10-----|-------------------|-----------------|
D|------10----10-8---|-10----10----------|-------------------|-----------------|
A|-------------------|-------------------|-------------------|-----------------|
E|-------------------|-------------------|-------------------|-----------------|
 |
 |
 |
 |
 |
 | Q    E Q   E  E E   Q   E E  E E  E E   Q    E E  E E E E   H.          Q
E|-6------6---6--6-6-|-4---4-4--4-4--4-4-|-3----3-3--3-3-3-3-|-3-----------3---|
B|-8------8---8--8-8-|-4---4-4--4-4--4-4-|-3----3-3--3-3-3-3-|-4-----------4---|
G|-8------8---8--8-8-|-5---5-5--5-5--5-5-|-4----4-4--4-4-4-4-|-5-----------5---|
D|-8------8---8--8-8-|-6---6-6--6-6--6-6-|-5----5-5--5-5-5-5-|-5-----------5---|
A|-6------6---6--6-6-|-6---6-6--6-6--6-6-|-5----5-5--5-5-5-5-|-3-----------3---|
E|-------------------|-4---4-4--4-4--4-4-|-3----3-3--3-3-3-3-|-----------------|
 |
 |
 |
 |
 |
 | Q    E Q   E  Q     Q   E E  E E  E E   Q.     Q.     Q     H.          Q
G|-------------------|-1---1-1--1-1--1-1-|-0-----------------|-----------------|
D|-1------1---1--1---|-------------------|--------1------0---|-----------------|
A|-------------------|-------------------|-------------------|-3-----------3---|
E|-------------------|-------------------|-------------------|-----------------|







E|-----------------|-----------------|------------------|-----------------|
B|-----------------|-----------------|------------------|-----------------|
G|-----------------|-----------------|------------------|-----------------|
D|-----------------|-----------------|------------------|-----------------|
A|-----------------|-----------------|------------------|-----------------|
E|-----------------|-----------------|------------------|-----------------|
 |
 |
 |
 |
 |
 | Q   E Q   E E E   Q   E E E E E E   Q   E E  E E E E   Q   E E E E Q
E|-6-----6---6-6-6-|-4---4-4-4-4-4-4-|-3---3-3--3-3-3-3-|-3---3-3-3-3-3---|
B|-8-----8---8-8-8-|-4---4-4-4-4-4-4-|-3---3-3--3-3-3-3-|-4---4-4-4-4-4---|
G|-8-----8---8-8-8-|-5---5-5-5-5-5-5-|-4---4-4--4-4-4-4-|-5---5-5-5-5-5---|
D|-8-----8---8-8-8-|-6---6-6-6-6-6-6-|-5---5-5--5-5-5-5-|-5---5-5-5-5-5---|
A|-6-----6---6-6-6-|-6---6-6-6-6-6-6-|-5---5-5--5-5-5-5-|-3---3-3-3-3-3---|
E|-----------------|-4---4-4-4-4-4-4-|-3---3-3--3-3-3-3-|-----------------|
 |
 |
 |
 |
 |
 | Q   E Q   E Q     Q   E E E E E E   Q.    Q.     Q     H.          Q
G|-----------------|-1---1-1-1-1-1-1-|-0----------------|-----------------|
D|-1-----1---1-1---|-----------------|-------1------0---|-----------------|
A|-----------------|-----------------|------------------|-3-----------3---|
E|-----------------|-----------------|------------------|-----------------|






                                                          Q   E Q   Q   E
E|-----------------|-----------------|------------------|------------------|
B|-----------------|-----------------|------------------|------------------|
G|-----------------|-----------------|------------------|-----8------------|
D|-----------------|-----------------|------------------|-10----10--8------|
A|-----------------|-----------------|------------------|---------------10+|
E|-----------------|-----------------|------------------|------------------|
 |
 |
 |
 |
 |
 | Q   E Q   E E E   Q   E E E E E E   Q   E E  E E E E   H.          Q
E|-6-----6---6-6-6-|-4---4-4-4-4-4-4-|-3---3-3--3-3-3-3-|-3-----------3----|
B|-8-----8---8-8-8-|-4---4-4-4-4-4-4-|-3---3-3--3-3-3-3-|-4-----------4----|
G|-8-----8---8-8-8-|-5---5-5-5-5-5-5-|-4---4-4--4-4-4-4-|-5-----------5----|
D|-8-----8---8-8-8-|-6---6-6-6-6-6-6-|-5---5-5--5-5-5-5-|-5-----------5----|
A|-6-----6---6-6-6-|-6---6-6-6-6-6-6-|-5---5-5--5-5-5-5-|-3-----------3----|
E|-----------------|-4---4-4-4-4-4-4-|-3---3-3--3-3-3-3-|------------------|
 |
 |
 |
 |
 |
 | Q   E Q   E Q     Q   E E E E E E   Q.    Q.     Q     H.          Q
G|-----------------|-1---1-1-1-1-1-1-|-0----------------|------------------|
D|-1-----1---1-1---|-----------------|-------1------0---|------------------|
A|-----------------|-----------------|------------------|-3-----------3----|
E|-----------------|-----------------|------------------|------------------|






   H.          Q     Q   Q   E Q   E    W                  Q   E Q    Q   E
E|-----------------|------------------|------------------|-------------------|
B|-----------------|------------------|------------------|-------------------|
G|-----------------|------------------|------------------|-----8-------------|
D|-----------------|-----------8------|------------------|-10----10---8------|
A|-10----------6---|-8---6---8-----10+|-10---------------|----------------10+|
E|-----------------|------------------|------------------|-------------------|
 |
 |
 |
 |
 |
 | Q   E Q   E E E   Q   E E E E E E    Q   E E  E E E E   Q   E E  E E Q
E|-6-----6---6-6-6-|-4---4-4-4-4-4-4--|-3---3-3--3-3-3-3-|-3---3-3--3-3-3----|
B|-8-----8---8-8-8-|-4---4-4-4-4-4-4--|-3---3-3--3-3-3-3-|-4---4-4--4-4-4----|
G|-8-----8---8-8-8-|-5---5-5-5-5-5-5--|-4---4-4--4-4-4-4-|-5---5-5--5-5-5----|
D|-8-----8---8-8-8-|-6---6-6-6-6-6-6--|-5---5-5--5-5-5-5-|-5---5-5--5-5-5----|
A|-6-----6---6-6-6-|-6---6-6-6-6-6-6--|-5---5-5--5-5-5-5-|-3---3-3--3-3-3----|
E|-----------------|-4---4-4-4-4-4-4--|-3---3-3--3-3-3-3-|-------------------|
 |
 |
 |
 |
 |
 | Q   E Q   E Q     Q   E E E E E E    Q.    Q.     Q     H.           Q
G|-----------------|-1---1-1-1-1-1-1--|-0----------------|-------------------|
D|-1-----1---1-1---|------------------|-------1------0---|-------------------|
A|-----------------|------------------|------------------|-3------------3----|
E|-----------------|------------------|------------------|-------------------|






   H.          Q     Q   Q   Q   Q     E  E E E  E E  E E   Q   E  E E.  E.  E
E|-----------------|-----------------|--------------------|-8---11-8-11--13--13+|
B|-----------------|-----------------|----------------8-11|---------------------|
G|-----------------|-----------------|-----------8-10-----|---------------------|
D|-----------------|-----------------|------8-10----------|---------------------|
A|-10----------6---|-8---6-----------|-8--10--------------|---------------------|
E|-----------------|---------8-------|--------------------|---------------------|
 |
 |
 |
 |
 |
 | Q   E Q   E E E   Q   E E E E E E   Q    E E  E E  E E   Q   E  E E  E  Q
E|-6-----6---6-6-6-|-4---4-4-4-4-4-4-|-3----3-3--3-3--3-3-|-3---3--3-3--3--3----|
B|-8-----8---8-8-8-|-4---4-4-4-4-4-4-|-3----3-3--3-3--3-3-|-4---4--4-4--4--4----|
G|-8-----8---8-8-8-|-5---5-5-5-5-5-5-|-4----4-4--4-4--4-4-|-5---5--5-5--5--5----|
D|-8-----8---8-8-8-|-6---6-6-6-6-6-6-|-5----5-5--5-5--5-5-|-5---5--5-5--5--5----|
A|-6-----6---6-6-6-|-6---6-6-6-6-6-6-|-5----5-5--5-5--5-5-|-3---3--3-3--3--3----|
E|-----------------|-4---4-4-4-4-4-4-|-3----3-3--3-3--3-3-|---------------------|
 |
 |
 |
 |
 |
 | Q   E Q   E Q     Q   E E E E E E   Q.     Q.      Q     H.             Q
G|-----------------|-1---1-1-1-1-1-1-|-0------------------|---------------------|
D|-1-----1---1-1---|-----------------|--------1-------0---|---------------------|
A|-----------------|-----------------|--------------------|-3--------------3----|
E|-----------------|-----------------|--------------------|---------------------|






   H       E  E  E  E   Q   E  Q   E  E E   Q   E  Q    E  E E
E|-13+-----13-13-13-13|-13--11-8------8-11|-13--11-8-----------|
B|--------------------|------------11-----|-------------11-8-11|
G|--------------------|-------------------|--------------------|
D|--------------------|-------------------|--------------------|
A|--------------------|-------------------|--------------------|
E|--------------------|-------------------|--------------------|
 |
 |
 |
 |
 |
 | Q   E Q    E  E  E   Q   E  E E E  E E   Q   E  E  E E  E E
E|-6-----6----6--6--6-|-4---4--4-4-4--4-4-|-3---3--3--3-3--3-3-|
B|-8-----8----8--8--8-|-4---4--4-4-4--4-4-|-3---3--3--3-3--3-3-|
G|-8-----8----8--8--8-|-5---5--5-5-5--5-5-|-4---4--4--4-4--4-4-|
D|-8-----8----8--8--8-|-6---6--6-6-6--6-6-|-5---5--5--5-5--5-5-|
A|-6-----6----6--6--6-|-6---6--6-6-6--6-6-|-5---5--5--5-5--5-5-|
E|--------------------|-4---4--4-4-4--4-4-|-3---3--3--3-3--3-3-|
 |
 |
 |
 |
 |
 | Q   E Q    E  Q      Q   E  E E E  E E   Q.     Q.      Q
G|--------------------|-1---1--1-1-1--1-1-|-0------------------|
D|-1-----1----1--1----|-------------------|--------1-------0---|
A|--------------------|-------------------|--------------------|
E|--------------------|-------------------|--------------------|






   Q   E  E E.  E.  E    W                 Q   Q    Q    Q
E|-8---11-8-11--13--15+|-15--------------|-15--13---11---8---|
B|---------------------|-----------------|-------------------|
G|---------------------|-----------------|-------------------|
D|---------------------|-----------------|-------------------|
A|---------------------|-----------------|-------------------|
E|---------------------|-----------------|-------------------|
 |
 |
 |
 |
 |
 | Q   E  E E  E  Q      Q   E Q   E E E   Q   E  E E  E E E
E|-3---3--3-3--3--3----|-6-----6---6-6-6-|-4---4--4-4--4-4-4-|
B|-4---4--4-4--4--4----|-8-----8---8-8-8-|-4---4--4-4--4-4-4-|
G|-5---5--5-5--5--5----|-8-----8---8-8-8-|-5---5--5-5--5-5-5-|
D|-5---5--5-5--5--5----|-8-----8---8-8-8-|-6---6--6-6--6-6-6-|
A|-3---3--3-3--3--3----|-6-----6---6-6-6-|-6---6--6-6--6-6-6-|
E|---------------------|-----------------|-4---4--4-4--4-4-4-|
 |
 |
 |
 |
 |
 | H.             Q      Q   E Q   E Q     Q   E  E E  E E E
G|---------------------|-----------------|-1---1--1-1--1-1-1-|
D|---------------------|-1-----1---1-1---|-------------------|
A|-3--------------3----|-----------------|-------------------|
E|---------------------|-----------------|-------------------|





[ Tab from: http://www.guitaretab.com/m/misc-unsigned-bands/117385.html ]
   Q   Q    E  E E  E   Q   E E E. E.  E   E  E E Q   E  Q
E|-11--8--------------|------------------|-------------------|
B|----------11-8------|------------------|-------------------|
G|---------------10-8-|-----8---8--10--11|-10-8---8----------|
D|--------------------|-10----10---------|------10----10-8---|
A|--------------------|------------------|-------------------|
E|--------------------|------------------|-------------------|
 |
 |
 |
 |
 |
 | Q   E E  E  E E  E   H.           Q     Q    E Q   E  E E
E|-3---3-3--3--3-3--3-|-3------------3---|-6------6---6--6-6-|
B|-3---3-3--3--3-3--3-|-4------------4---|-8------8---8--8-8-|
G|-4---4-4--4--4-4--4-|-5------------5---|-8------8---8--8-8-|
D|-5---5-5--5--5-5--5-|-5------------5---|-8------8---8--8-8-|
A|-5---5-5--5--5-5--5-|-3------------3---|-6------6---6--6-6-|
E|-3---3-3--3--3-3--3-|------------------|-------------------|
 |
 |
 |
 |
 |
 | Q.    Q.      Q      H.           Q     Q    E Q   E  Q
G|-0------------------|------------------|-------------------|
D|-------1-------0----|------------------|-1------1---1--1---|
A|--------------------|-3------------3---|-------------------|
E|--------------------|------------------|-------------------|






   Q   E E  E Q    E   E E E  E  E  E E  E   Q   E E  E.  E.  E
E|-------------------|---8-----------------|---------------------|
B|-------------------|-----11-8------------|---------------------|
G|-----8----8-10---8+|-8---------10-8------|-----8----8---10--11+|
D|-10----10----------|----------------10-8-|-10----10------------|
A|-------------------|---------------------|---------------------|
E|-------------------|---------------------|---------------------|
 |
 |
 |
 |
 |
 | Q   E E  E E  E E   Q   E  E  E  E E  E   Q   E E  E  E  Q
E|-4---4-4--4-4--4-4-|-3---3--3--3--3-3--3-|-3---3-3--3--3--3----|
B|-4---4-4--4-4--4-4-|-3---3--3--3--3-3--3-|-4---4-4--4--4--4----|
G|-5---5-5--5-5--5-5-|-4---4--4--4--4-4--4-|-5---5-5--5--5--5----|
D|-6---6-6--6-6--6-6-|-5---5--5--5--5-5--5-|-5---5-5--5--5--5----|
A|-6---6-6--6-6--6-6-|-5---5--5--5--5-5--5-|-3---3-3--3--3--3----|
E|-4---4-4--4-4--4-4-|-3---3--3--3--3-3--3-|---------------------|
 |
 |
 |
 |
 |
 | Q   E E  E E  E E   Q.     Q.      Q      H.             Q
G|-1---1-1--1-1--1-1-|-0-------------------|---------------------|
D|-------------------|--------1-------0----|---------------------|
A|-------------------|---------------------|-3--------------3----|
E|-------------------|---------------------|---------------------|






   E  E E Q   E  Q     Q   E E  E Q    E   E  Q   Q    E E E   Q   Q   H
E|-------------------|-------------------|--------8----8-8-8-|-8---------------|
B|-------------------|-----------------8+|-8--11-------------|-----------------|
G|-10-8---8----------|-----8----8-10-----|-------------------|-----------------|
D|------10----10-8---|-10----10----------|-------------------|-----------------|
A|-------------------|-------------------|-------------------|-----------------|
E|-------------------|-------------------|-------------------|-----------------|
 |
 |
 |
 |
 |
 | Q    E Q   E  E E   Q   E E  E E  E E   Q    E E  E E E E   H.          Q
E|-6------6---6--6-6-|-4---4-4--4-4--4-4-|-3----3-3--3-3-3-3-|-3-----------3---|
B|-8------8---8--8-8-|-4---4-4--4-4--4-4-|-3----3-3--3-3-3-3-|-4-----------4---|
G|-8------8---8--8-8-|-5---5-5--5-5--5-5-|-4----4-4--4-4-4-4-|-5-----------5---|
D|-8------8---8--8-8-|-6---6-6--6-6--6-6-|-5----5-5--5-5-5-5-|-5-----------5---|
A|-6------6---6--6-6-|-6---6-6--6-6--6-6-|-5----5-5--5-5-5-5-|-3-----------3---|
E|-------------------|-4---4-4--4-4--4-4-|-3----3-3--3-3-3-3-|-----------------|
 |
 |
 |
 |
 |
 | Q    E Q   E  Q     Q   E E  E E  E E   Q.     Q.     Q     H.          Q
G|-------------------|-1---1-1--1-1--1-1-|-0-----------------|-----------------|
D|-1------1---1--1---|-------------------|--------1------0---|-----------------|
A|-------------------|-------------------|-------------------|-3-----------3---|
E|-------------------|-------------------|-------------------|-----------------|







E|-----------------|-----------------|------------------|-----------------|
B|-----------------|-----------------|------------------|-----------------|
G|-----------------|-----------------|------------------|-----------------|
D|-----------------|-----------------|------------------|-----------------|
A|-----------------|-----------------|------------------|-----------------|
E|-----------------|-----------------|------------------|-----------------|
 |
 |
 |
 |
 |
 | Q   E Q   E E E   Q   E E E E E E   Q   E E  E E E E   Q   E E E E Q
E|-6-----6---6-6-6-|-4---4-4-4-4-4-4-|-3---3-3--3-3-3-3-|-3---3-3-3-3-3---|
B|-8-----8---8-8-8-|-4---4-4-4-4-4-4-|-3---3-3--3-3-3-3-|-4---4-4-4-4-4---|
G|-8-----8---8-8-8-|-5---5-5-5-5-5-5-|-4---4-4--4-4-4-4-|-5---5-5-5-5-5---|
D|-8-----8---8-8-8-|-6---6-6-6-6-6-6-|-5---5-5--5-5-5-5-|-5---5-5-5-5-5---|
A|-6-----6---6-6-6-|-6---6-6-6-6-6-6-|-5---5-5--5-5-5-5-|-3---3-3-3-3-3---|
E|-----------------|-4---4-4-4-4-4-4-|-3---3-3--3-3-3-3-|-----------------|
 |
 |
 |
 |
 |
 | Q   E Q   E Q     Q   E E E E E E   Q.    Q.     Q     H.          Q
G|-----------------|-1---1-1-1-1-1-1-|-0----------------|-----------------|
D|-1-----1---1-1---|-----------------|-------1------0---|-----------------|
A|-----------------|-----------------|------------------|-3-----------3---|
E|-----------------|-----------------|------------------|-----------------|







E|-----------------|-----------------|------------------|-----------------|
B|-----------------|-----------------|------------------|-----------------|
G|-----------------|-----------------|------------------|-----------------|
D|-----------------|-----------------|------------------|-----------------|
A|-----------------|-----------------|------------------|-----------------|
E|-----------------|-----------------|------------------|-----------------|
 |
 |
 |
 |
 |
 | Q   E Q   E E E   Q   E E E E E E   Q   E E  E E E E   H.          Q
E|-6-----6---6-6-6-|-4---4-4-4-4-4-4-|-3---3-3--3-3-3-3-|-3-----------3---|
B|-8-----8---8-8-8-|-4---4-4-4-4-4-4-|-3---3-3--3-3-3-3-|-4-----------4---|
G|-8-----8---8-8-8-|-5---5-5-5-5-5-5-|-4---4-4--4-4-4-4-|-5-----------5---|
D|-8-----8---8-8-8-|-6---6-6-6-6-6-6-|-5---5-5--5-5-5-5-|-5-----------5---|
A|-6-----6---6-6-6-|-6---6-6-6-6-6-6-|-5---5-5--5-5-5-5-|-3-----------3---|
E|-----------------|-4---4-4-4-4-4-4-|-3---3-3--3-3-3-3-|-----------------|
 |
 |
 |
 |
 |
 | Q   E Q   E Q     Q   E E E E E E   Q.    Q.     Q     H.          Q
G|-----------------|-1---1-1-1-1-1-1-|-0----------------|-----------------|
D|-1-----1---1-1---|-----------------|-------1------0---|-----------------|
A|-----------------|-----------------|------------------|-3-----------3---|
E|-----------------|-----------------|------------------|-----------------|







E|-----------------|-----------------|------------------|-----------------|
B|-----------------|-----------------|------------------|-----------------|
G|-----------------|-----------------|------------------|-----------------|
D|-----------------|-----------------|------------------|-----------------|
A|-----------------|-----------------|------------------|-----------------|
E|-----------------|-----------------|------------------|-----------------|
 |
 |
 |
 |
 |
 | Q   E Q   E E E   Q   E E E E E E   Q   E E  E E E E   Q   E E E E Q
E|-6-----6---6-6-6-|-4---4-4-4-4-4-4-|-3---3-3--3-3-3-3-|-3---3-3-3-3-3---|
B|-8-----8---8-8-8-|-4---4-4-4-4-4-4-|-3---3-3--3-3-3-3-|-4---4-4-4-4-4---|
G|-8-----8---8-8-8-|-5---5-5-5-5-5-5-|-4---4-4--4-4-4-4-|-5---5-5-5-5-5---|
D|-8-----8---8-8-8-|-6---6-6-6-6-6-6-|-5---5-5--5-5-5-5-|-5---5-5-5-5-5---|
A|-6-----6---6-6-6-|-6---6-6-6-6-6-6-|-5---5-5--5-5-5-5-|-3---3-3-3-3-3---|
E|-----------------|-4---4-4-4-4-4-4-|-3---3-3--3-3-3-3-|-----------------|
 |
 |
 |
 |
 |
 | Q   E Q   E Q     Q   E E E E E E   Q.    Q.     Q     H.          Q
G|-----------------|-1---1-1-1-1-1-1-|-0----------------|-----------------|
D|-1-----1---1-1---|-----------------|-------1------0---|-----------------|
A|-----------------|-----------------|------------------|-3-----------3---|
E|-----------------|-----------------|------------------|-----------------|






                                       H        E E E  E   Q   E E  E.  E.  E
E|-----------------|-----------------|-------------------|--------------------|
B|-----------------|-----------------|------------8------|--------------------|
G|-----------------|-----------------|--------------10-8-|-----8----8---10--11|
D|-----------------|-----------------|-------------------|-10----10-----------|
A|-----------------|-----------------|-------------------|--------------------|
E|-----------------|-----------------|-------------------|--------------------|
 |
 |
 |
 |
 |
 | Q   E Q   E E E   Q   E E E E E E   Q   E E  E E E  E   Q   E E  E  E  Q
E|-6-----6---6-6-6-|-4---4-4-4-4-4-4-|-3---3-3--3-3-3--3-|-3---3-3--3--3--3---|
B|-8-----8---8-8-8-|-4---4-4-4-4-4-4-|-3---3-3--3-3-3--3-|-4---4-4--4--4--4---|
G|-8-----8---8-8-8-|-5---5-5-5-5-5-5-|-4---4-4--4-4-4--4-|-5---5-5--5--5--5---|
D|-8-----8---8-8-8-|-6---6-6-6-6-6-6-|-5---5-5--5-5-5--5-|-5---5-5--5--5--5---|
A|-6-----6---6-6-6-|-6---6-6-6-6-6-6-|-5---5-5--5-5-5--5-|-3---3-3--3--3--3---|
E|-----------------|-4---4-4-4-4-4-4-|-3---3-3--3-3-3--3-|--------------------|
 |
 |
 |
 |
 |
 | Q   E Q   E Q     Q   E E E E E E   Q.    Q.     Q      H.             Q
G|-----------------|-1---1-1-1-1-1-1-|-0-----------------|--------------------|
D|-1-----1---1-1---|-----------------|-------1------0----|--------------------|
A|-----------------|-----------------|-------------------|-3--------------3---|
E|-----------------|-----------------|-------------------|--------------------|






   H       E  E  E  E   Q   Q    Q    Q      E  E E  Q    Q.
E|--------------------|--------------------|---------------------|
B|--------------------|--------------------|---------------------|
G|-10+-----10-10-10-10|-10--10---10---10---|-10-8----------------|
D|--------------------|--------------------|------10-8----10-----|
A|--------------------|--------------------|---------------------|
E|--------------------|--------------------|---------------------|
 |
 |
 |
 |
 |
 | Q   E Q    E  E  E   Q   E  E E  E E  E   Q    E  E  E E  E E
E|-6-----6----6--6--6-|-4---4--4-4--4-4--4-|-3----3--3--3-3--3-3-|
B|-8-----8----8--8--8-|-4---4--4-4--4-4--4-|-3----3--3--3-3--3-3-|
G|-8-----8----8--8--8-|-5---5--5-5--5-5--5-|-4----4--4--4-4--4-4-|
D|-8-----8----8--8--8-|-6---6--6-6--6-6--6-|-5----5--5--5-5--5-5-|
A|-6-----6----6--6--6-|-6---6--6-6--6-6--6-|-5----5--5--5-5--5-5-|
E|--------------------|-4---4--4-4--4-4--4-|-3----3--3--3-3--3-3-|
 |
 |
 |
 |
 |
 | Q   E Q    E  Q      Q   E  E E  E E  E   Q.      Q.      Q
G|--------------------|-1---1--1-1--1-1--1-|-0-------------------|
D|-1-----1----1--1----|--------------------|---------1-------0---|
A|--------------------|--------------------|---------------------|
E|--------------------|--------------------|---------------------|






   Q   E E  E E  E E    W                 E  E E  E Q    Q
E|--------------------|-----------------|-11-8-----------8---|
B|---------------8-11+|-11--------------|------11-8-11-------|
G|-----8----8-10------|-----------------|--------------------|
D|-10----10-----------|-----------------|--------------------|
A|--------------------|-----------------|--------------------|
E|--------------------|-----------------|--------------------|
 |
 |
 |
 |
 |
 | Q   E E  E E  Q      Q   E Q   E E E   Q    E  E E  E E E
E|-3---3-3--3-3--3----|-6-----6---6-6-6-|-4----4--4-4--4-4-4-|
B|-4---4-4--4-4--4----|-8-----8---8-8-8-|-4----4--4-4--4-4-4-|
G|-5---5-5--5-5--5----|-8-----8---8-8-8-|-5----5--5-5--5-5-5-|
D|-5---5-5--5-5--5----|-8-----8---8-8-8-|-6----6--6-6--6-6-6-|
A|-3---3-3--3-3--3----|-6-----6---6-6-6-|-6----6--6-6--6-6-6-|
E|--------------------|-----------------|-4----4--4-4--4-4-4-|
 |
 |
 |
 |
 |
 | H.            Q      Q   E Q   E Q     Q    E  E E  E E E
G|--------------------|-----------------|-1----1--1-1--1-1-1-|
D|--------------------|-1-----1---1-1---|--------------------|
A|-3-------------3----|-----------------|--------------------|
E|--------------------|-----------------|--------------------|






   E  E E  E  E  E E  E   W                 W
E|----------------------|-----------------|-----------------|-----------------|
B|-11-8----------8------|-----------------|-----------------|-----------------|
G|------10-8--10---10-8-|-----------------|-----------------|-----------------|
D|----------------------|-10+-------------|-10--------------|-----------------|
A|----------------------|-----------------|-----------------|-----------------|
E|----------------------|-----------------|-----------------|-----------------|
 |
 |
 |
 |
 |
 | Q    E  E  E  E E  E   W                 W
E|-3----3--3--3--3-3--3-|-3+--------------|-3---------------|-----------------|
B|-3----3--3--3--3-3--3-|-4+--------------|-4---------------|-----------------|
G|-4----4--4--4--4-4--4-|-5+--------------|-5---------------|-----------------|
D|-5----5--5--5--5-5--5-|-5+--------------|-5---------------|-----------------|
A|-5----5--5--5--5-5--5-|-3+--------------|-3---------------|-----------------|
E|-3----3--3--3--3-3--3-|-----------------|-----------------|-----------------|
 |
 |
 |
 |
 |
 | Q.      Q.      Q      W                 W
G|-0--------------------|-----------------|-----------------|-----------------|
D|---------1-------0----|-----------------|-----------------|-----------------|
A|----------------------|-3+--------------|-3---------------|-----------------|
E|----------------------|-----------------|-----------------|-----------------|







E|-----------------|-----------------|-----------------|-----------------|
B|-----------------|-----------------|-----------------|-----------------|
G|-----------------|-----------------|-----------------|-----------------|
D|-----------------|-----------------|-----------------|-----------------|
A|-----------------|-----------------|-----------------|-----------------|
E|-----------------|-----------------|-----------------|-----------------|
 |
 |
 |
 |
 |
 |
E|-----------------|-----------------|-----------------|-----------------|
B|-----------------|-----------------|-----------------|-----------------|
G|-----------------|-----------------|-----------------|-----------------|
D|-----------------|-----------------|-----------------|-----------------|
A|-----------------|-----------------|-----------------|-----------------|
E|-----------------|-----------------|-----------------|-----------------|
 |
 |
 |
 |
 |
 |                   H.          Q     Q   E Q   E Q     Q   E E E E E E
G|-----------------|-----------------|-----------------|-1---1-1-1-1-1-1-|
D|-----------------|-----------------|-1-----1---1-1---|-----------------|
A|-----------------|-3-----------3---|-----------------|-----------------|
E|-----------------|-----------------|-----------------|-----------------|







E|-----------------|-----------------|-----------------|-----------------|
B|-----------------|-----------------|-----------------|-----------------|
G|-----------------|-----------------|-----------------|-----------------|
D|-----------------|-----------------|-----------------|-----------------|
A|-----------------|-----------------|-----------------|-----------------|
E|-----------------|-----------------|-----------------|-----------------|
 |
 |
 |
 |
 |
 |
E|-----------------|-----------------|-----------------|-----------------|
B|-----------------|-----------------|-----------------|-----------------|
G|-----------------|-----------------|-----------------|-----------------|
D|-----------------|-----------------|-----------------|-----------------|
A|-----------------|-----------------|-----------------|-----------------|
E|-----------------|-----------------|-----------------|-----------------|
 |
 |
 |
 |
 |
 | Q.    Q.    Q     H.          Q     Q   E Q   E Q     Q   E E E E E E
G|-0---------------|-----------------|-----------------|-1---1-1-1-1-1-1-|
D|-------1-----0---|-----------------|-1-----1---1-1---|-----------------|
A|-----------------|-3-----------3---|-----------------|-----------------|
E|-----------------|-----------------|-----------------|-----------------|







E|-----------------|-----------------|-----------------|-----------------|
B|-----------------|-----------------|-----------------|-----------------|
G|-----------------|-----------------|-----------------|-----------------|
D|-----------------|-----------------|-----------------|-----------------|
A|-----------------|-----------------|-----------------|-----------------|
E|-----------------|-----------------|-----------------|-----------------|
 |
 |
 |
 |
 |
 |
E|-----------------|-----------------|-----------------|-----------------|
B|-----------------|-----------------|-----------------|-----------------|
G|-----------------|-----------------|-----------------|-----------------|
D|-----------------|-----------------|-----------------|-----------------|
A|-----------------|-----------------|-----------------|-----------------|
E|-----------------|-----------------|-----------------|-----------------|
 |
 |
 |
 |
 |
 | Q.    Q.    Q     H.          Q     Q   E Q   E Q     Q   E E E E E E
G|-0---------------|-----------------|-----------------|-1---1-1-1-1-1-1-|
D|-------1-----0---|-----------------|-1-----1---1-1---|-----------------|
A|-----------------|-3-----------3---|-----------------|-----------------|
E|-----------------|-----------------|-----------------|-----------------|







E|-----------------|-----------------|-----------------|-----------------|
B|-----------------|-----------------|-----------------|-----------------|
G|-----------------|-----------------|-----------------|-----------------|
D|-----------------|-----------------|-----------------|-----------------|
A|-----------------|-----------------|-----------------|-----------------|
E|-----------------|-----------------|-----------------|-----------------|
 |
 |
 |
 |
 |
 |
E|-----------------|-----------------|-----------------|-----------------|
B|-----------------|-----------------|-----------------|-----------------|
G|-----------------|-----------------|-----------------|-----------------|
D|-----------------|-----------------|-----------------|-----------------|
A|-----------------|-----------------|-----------------|-----------------|
E|-----------------|-----------------|-----------------|-----------------|
 |
 |
 |
 |
 |
 | Q.    Q.    Q     H.          Q     Q   E Q   E Q     Q   E E E E E E
G|-0---------------|-----------------|-----------------|-1---1-1-1-1-1-1-|
D|-------1-----0---|-----------------|-1-----1---1-1---|-----------------|
A|-----------------|-3-----------3---|-----------------|-----------------|
E|-----------------|-----------------|-----------------|-----------------|






   H       E E E E   Q   E  E E.  E.  E    H       E  E  E  E
E|-----------------|-8---11-8-11--13--13+|-13+-----13-13-13-13|
B|-------------8-11|---------------------|--------------------|
G|-----------10----|---------------------|--------------------|
D|-----------------|---------------------|--------------------|
A|-----------------|---------------------|--------------------|
E|-----------------|---------------------|--------------------|
 |
 |
 |
 |
 |
 | Q   Q   H         Q   E  E E  E  Q      Q   E Q    E  E  E
E|-3---------------|-3---3--3-3--3--3----|-6-----6----6--6--6-|
B|-3---------------|-4---4--4-4--4--4----|-8-----8----8--8--8-|
G|-4---------------|-5---5--5-5--5--5----|-8-----8----8--8--8-|
D|-5---------------|-5---5--5-5--5--5----|-8-----8----8--8--8-|
A|-5---------------|-3---3--3-3--3--3----|-6-----6----6--6--6-|
E|-3---------------|---------------------|--------------------|
 |
 |
 |
 |
 |
 | Q   Q   H         H.             Q      Q   E Q    E  Q
G|-0---------------|---------------------|--------------------|
D|-----------------|---------------------|-1-----1----1--1----|
A|-----------------|-3--------------3----|--------------------|
E|-----------------|---------------------|--------------------|






   Q   E  Q   E  E E   Q   E  Q    E  E E   Q   E  E E.  E.  E
E|-13--11-8------8-11|-13--11-8-----------|-8---11-8-11--13--15+|
B|------------11-----|-------------11-8-11|---------------------|
G|-------------------|--------------------|---------------------|
D|-------------------|--------------------|---------------------|
A|-------------------|--------------------|---------------------|
E|-------------------|--------------------|---------------------|
 |
 |
 |
 |
 |
 | Q   E  E E E  E E   Q   E  E  E E  E E   Q   E  E E  E  Q
E|-4---4--4-4-4--4-4-|-3---3--3--3-3--3-3-|-3---3--3-3--3--3----|
B|-4---4--4-4-4--4-4-|-3---3--3--3-3--3-3-|-4---4--4-4--4--4----|
G|-5---5--5-5-5--5-5-|-4---4--4--4-4--4-4-|-5---5--5-5--5--5----|
D|-6---6--6-6-6--6-6-|-5---5--5--5-5--5-5-|-5---5--5-5--5--5----|
A|-6---6--6-6-6--6-6-|-5---5--5--5-5--5-5-|-3---3--3-3--3--3----|
E|-4---4--4-4-4--4-4-|-3---3--3--3-3--3-3-|---------------------|
 |
 |
 |
 |
 |
 | Q   E  E E E  E E   Q.     Q.      Q     H.             Q
G|-1---1--1-1-1--1-1-|-0------------------|---------------------|
D|-------------------|--------1-------0---|---------------------|
A|-------------------|--------------------|-3--------------3----|
E|-------------------|--------------------|---------------------|






   W                 Q   Q    Q    Q     Q   Q    E  E E  E
E|-15--------------|-15--13---11---8---|-11--8--------------|
B|-----------------|-------------------|----------11-8------|
G|-----------------|-------------------|---------------10-8-|
D|-----------------|-------------------|--------------------|
A|-----------------|-------------------|--------------------|
E|-----------------|-------------------|--------------------|
 |
 |
 |
 |
 |
 | Q   E Q   E E E   Q   E  E E  E E E   Q   E E  E  E E  E
E|-6-----6---6-6-6-|-4---4--4-4--4-4-4-|-3---3-3--3--3-3--3-|
B|-8-----8---8-8-8-|-4---4--4-4--4-4-4-|-3---3-3--3--3-3--3-|
G|-8-----8---8-8-8-|-5---5--5-5--5-5-5-|-4---4-4--4--4-4--4-|
D|-8-----8---8-8-8-|-6---6--6-6--6-6-6-|-5---5-5--5--5-5--5-|
A|-6-----6---6-6-6-|-6---6--6-6--6-6-6-|-5---5-5--5--5-5--5-|
E|-----------------|-4---4--4-4--4-4-4-|-3---3-3--3--3-3--3-|
 |
 |
 |
 |
 |
 | Q   E Q   E Q     Q   E  E E  E E E   Q.    Q.      Q
G|-----------------|-1---1--1-1--1-1-1-|-0------------------|
D|-1-----1---1-1---|-------------------|-------1-------0----|
A|-----------------|-------------------|--------------------|
E|-----------------|-------------------|--------------------|






   Q   E E  E.  E.  E    E  E E Q   E  Q     Q   E E  E Q    E
E|---------------------|-------------------|-------------------|
B|---------------------|-------------------|-------------------|
G|-----8----8---10--11+|-10-8---8----------|-----8----8-10---8+|
D|-10----10------------|------10----10-8---|-10----10----------|
A|---------------------|-------------------|-------------------|
E|---------------------|-------------------|-------------------|
 |
 |
 |
 |
 |
 | Q   E E  E  E  Q      Q    E Q   E  E E   Q   E E  E E  E E
E|-3---3-3--3--3--3----|-6------6---6--6-6-|-4---4-4--4-4--4-4-|
B|-4---4-4--4--4--4----|-8------8---8--8-8-|-4---4-4--4-4--4-4-|
G|-5---5-5--5--5--5----|-8------8---8--8-8-|-5---5-5--5-5--5-5-|
D|-5---5-5--5--5--5----|-8------8---8--8-8-|-6---6-6--6-6--6-6-|
A|-3---3-3--3--3--3----|-6------6---6--6-6-|-6---6-6--6-6--6-6-|
E|---------------------|-------------------|-4---4-4--4-4--4-4-|
 |
 |
 |
 |
 |
 | H.             Q      Q    E Q   E  Q     Q   E E  E E  E E
G|---------------------|-------------------|-1---1-1--1-1--1-1-|
D|---------------------|-1------1---1--1---|-------------------|
A|-3--------------3----|-------------------|-------------------|
E|---------------------|-------------------|-------------------|






   E E E  E  E  E E  E   Q   E E  E.  E.  E    E  E E Q   E  Q
E|---8-----------------|---------------------|-------------------|
B|-----11-8------------|---------------------|-------------------|
G|-8---------10-8------|-----8----8---10--11+|-10-8---8----------|
D|----------------10-8-|-10----10------------|------10----10-8---|
A|---------------------|---------------------|-------------------|
E|---------------------|---------------------|-------------------|
 |
 |
 |
 |
 |
 | Q   E  E  E  E E  E   Q   E E  E  E  Q      Q    E Q   E  E E
E|-3---3--3--3--3-3--3-|-3---3-3--3--3--3----|-6------6---6--6-6-|
B|-3---3--3--3--3-3--3-|-4---4-4--4--4--4----|-8------8---8--8-8-|
G|-4---4--4--4--4-4--4-|-5---5-5--5--5--5----|-8------8---8--8-8-|
D|-5---5--5--5--5-5--5-|-5---5-5--5--5--5----|-8------8---8--8-8-|
A|-5---5--5--5--5-5--5-|-3---3-3--3--3--3----|-6------6---6--6-6-|
E|-3---3--3--3--3-3--3-|---------------------|-------------------|
 |
 |
 |
 |
 |
 | Q.     Q.      Q      H.             Q      Q    E Q   E  Q
G|-0-------------------|---------------------|-------------------|
D|--------1-------0----|---------------------|-1------1---1--1---|
A|---------------------|-3--------------3----|-------------------|
E|---------------------|---------------------|-------------------|






   Q   E E  E Q    E   E  Q   E  E  E E  E   Q   Q   H
E|-------------------|--------8------------|-----------------|
B|-----------------8+|-8--11-----11-8------|-----------------|
G|-----8----8-10-----|----------------10-8-|-----------------|
D|-10----10----------|---------------------|-10--------------|
A|-------------------|---------------------|-----------------|
E|-------------------|---------------------|-----------------|
 |
 |
 |
 |
 |
 | Q   E E  E E  E E   Q    E E  E  E E  E   Q   Q   H
E|-4---4-4--4-4--4-4-|-3----3-3--3--3-3--3-|-3---------------|
B|-4---4-4--4-4--4-4-|-3----3-3--3--3-3--3-|-4---------------|
G|-5---5-5--5-5--5-5-|-4----4-4--4--4-4--4-|-5---------------|
D|-6---6-6--6-6--6-6-|-5----5-5--5--5-5--5-|-5---------------|
A|-6---6-6--6-6--6-6-|-5----5-5--5--5-5--5-|-3---------------|
E|-4---4-4--4-4--4-4-|-3----3-3--3--3-3--3-|-----------------|
 |
 |
 |
 |
 |
 | Q   E E  E E  E E   Q.     Q.      Q      Q   Q   H
G|-1---1-1--1-1--1-1-|-0-------------------|-----------------|
D|-------------------|--------1-------0----|-----------------|
A|-------------------|---------------------|-3---------------|
E|-------------------|---------------------|-----------------|




What do all the symbols mean?
-----------------------------

W - whole note (semibreve)
H - half note (minim)
Q - quarter note (crotchet)
E - 8th note (quaver)
S - 16th note (semiquaver)
T - 32nd note (demisemi quaver)
X - 64th note (hemidemisemi quaver)
? - Fret number not defined (note out of range)

If a dot appears after one of the above then it means that the note is 1.5
times as long, e.g. Q. is 3 8th notes long. Two dots means 1.75 times long.

If a '+' sign appears after a note then that note is tied to (held on to) the
next note.

 ______
|1.    | - play bar/s under this sign first time only in repeats

|2.    | - play bar/s under this sign second time only in repeats

|1.3.  | - play bar/s under this sign first and third time only in repeats

||
||*
||*      - Repeat back to this sign
||

 ||
*||
*||      - Repeat from this sign
 ||


|-3-|    - Triplet

___________________________________________________________
Created using Sibelius - http://www.sibelius.com/
Related for Heroes Wear Masks - Where The World Cant Follow tab