Song name
# A B C D E F G H I J K L M N O P Q R S T U V W X Y Z

Misc Unsigned Bands - Paranomore - Epic tab

THIS IS A KL SONG TO PLAY AND GETS REALLY CATCHY, ITS NOT TO HARD, JUST NEED TO REMEMBER
KEEP PUTTIN THE DEAD STRINGS IN COZ THERES ALOT OF THEM. I MADE THIS SONG SO IF U NEED
HELP JUST DROP ME A MESSAGE AND IL TRY AND CLEAR IT UP. the openin is fairly slow tempo 
liek boulevard of broken dreams kinda speed then wen distortion kiks in its tempo is 
faith by limp bizkit. ty james for bringin that up, ny other questions i will kindly answer

ARTIST:PARANOMORE
TABED BY DAVID THOMAS

CLEAN

e]----------0-----------------0-----------------0------------------0-------|
b]---------1--1-------------1---1-------------0----0-------------3---3-----|
g]-------2------2---------2-------2---------0--------0---------0-------0---|
d]-----3----------------2-----------------2------------------0-------------|
a]---0----------------0-----------------2------------------2---------------|  X2
e]-0----------------0-----------------0------------------3-----------------|


LET LAST OPEN G RING

e]--0--0--00000000--0--0--00000000---|
b]--1--1--11111111--1--1--11111111---|
g]--2--2--22222222--2--2--22222222---|
d]--3--3--33333333--2--2--22222222---|  X4
a]--0--0--00000000--0--0--00000000---|
e]--0--0--00000000--0--0--00000000---|


e]--0--0--x-x-0--0--x-x-0--0--x-x-0--0--x-x---|
b]--1--1--x-x-1--1--x-x-0--0--x-x-3--3--x-x---|
g]--2--2--x-x-2--2--x-x-0--0--x-x-0--0--x-x---|
d]--3--3--x-x-2--2--x-x-2--2--x-x-0--0--x-x---|  X2
a]--0--0--x-x-0--0--x-x-2--2--x-x-2--2--x-x---|
e]--0--0--x-x-0--0--x-x-0--0--x-x-3--3--x-x---|


e]--00000000--00000000--|
b]--33333333--33333333--|
g]--00000000--00000000--| X2
d]--00000000--00000000--|
a]--22222222--22222222--|
e]--33333333--33333333--|


e]--2--2--x-x-0--0--x-x-0--0--x-x--|
b]--3--3--x-x-1--1--x-x-2--2--x-x--|
g]--2--2--x-x-2--2--x-x-2--2--x-x--| X2
d]--0--0--x-x-3--3--x-x-2--2--x-x--|
a]--0--0--x-x-0--0--x-x-0--0--x-x--|
e]--0--0--x-x-0--0--x-x-0--0--x-x--|

LET LAST CHORD RING


e]--------------------------------------------------------------------15-15-18-17-15--|b
b]--3/- 17-17b--17-15--------------------------------------15-18-15-18----------------|
g]-------------------17-15----------------------------15-17---------------------------|
d]------------------------17-15------------------15-17--------------------------------|
a]-----------------------------17-15--------15-17-------------------------------------|
e]----------------------------------17-15-17------------------------------------------|


e]--15h19p15h19p15h19p15p19
b]-------------------------|
g]-------------------------|
d]-------------------------|
a]-------------------------|
e]-------------------------|

SLIGHT DISTORTION

VERSE 1
PART 1

e]---------------------------------------------------------------|
b]---------------------------------------------------------------|
g]---------------------------------------------------------------|  X2
d]---------------------------------------------------------------|
a]--9--x--9--x--9--x-x--9-9--x-x--9--x--9--x--9--x-x--9-9--x-x---|
e]--7--x--7--x--7--x-x--7-7--x-x--7--x--7--x--7--x-x--7-7--x-x---|


e]-------------------------|
b]-------------------------|
g]-------------------------|
d]--9999-11.11.11.11.11.11-|
a]--7777-9   9  9  9  9  9-|
e]-------------------------|

            X2


e]------------------------------------------|
b]------------------------------------------|
g]------------------------------------------|
d]------7-7-7-7-7-7-------------------------|  X2
a]--9-9-5-5-5-5-5-5-7-7-9--x--9--x--9--xx---|
e]--7-7-------------5-5-7--x--7--x--7--xx---|

THEM REPEAT ALL OF VERSE 1 AGAIN ( WERE DISTORTION STARTS)
Tap to rate this tab
 
# A B C D E F G H I J K L M N O P Q R S T U V W X Y Z