Guitaretab - guitar tabs
Song name
# A B C D E F G H I J K L M N O P Q R S T U V W X Y Z

Misc Unsigned Bands - Andrew And Taylor - Peril tab

#----------------------------------PLEASE NOTE---------------------------------#
#This file is the author's own work and represents their interpretation of the #
#song. You may only use this file for private study, scholarship, or research. #
#------------------------------------------------------------------------------##

                                      PERIL
                 As recorded by Taylor Ready and Andrew Ruchames


Music by Andrew and Taylor
Arranged by Andrew Ruchames
Transcribed by Andrew Ruchames

Gtr I (E A D G B E) - 'Taylor'
Gtr II (E A D G B E) - 'Andrew'

    Q=140
   4/4
    Gtr I
    E E E E E E E E   E E E E E Q        H
||------------------|---------------||---------|
||o-----------------|--------------o||---------|
||------------------|---------------||---------|
||------------------|---------------||---------|
||o-----------------|--------------o||---------|
||--0-0-3-0-0-5-0-0-|-7-0-0-3-0-1---||-/12\----|
|
|   Gtr II
|   E E E E E E E E   E E E E E Q
||------------------|---------------||---------|
||o-----------------|--------------o||---------|
||------------------|---------------||---------|
||------------------|---------------||---------|
||o-----3-----5-----|-7-----3---1--o||---------|
||--0-0---0-0---0-0-|---0-0---0-----||---------|


    E E E E E E E E   E E  E  E   E E E E E E E E E E E E E Q
||------------------|-------------------------------------------||
||o-----------------|------------------------------------------o||
||------------------|-------------------------------------------||
||------5-----7-----|-9---10s=9-------5-----7-----9-----5-------||
||o-----5-----7-----|-9---10--9-------5-----7-----9-----5------o||
||--0-0-3-0-0-5-0-0-|-7-0--8--7---0-0-3-0-0-5-0-0-7-0-0-3-0-1---||
|
|   E E E E E E E E   E E  E  S S E E E E E E E E E E E E E Q
||------------------|-------------------------------------------||
||o-----------------|------------------------------------------o||
||------------------|-------------------------------------------||
||------4-----5-----|-7----9s10s9-----4-----5-----7-----9-9-9---||
||o-----4-----5-----|-7----9-10-9-----4-----5-----7-----9-9-9--o||
||--0-0-2-0-0-3-0-0-|-5-0--7--8-7-0-0-2-0-0-3-0-0-5-0-0-7-7-7---||


    Q=120
    E E E E E E E E E E E E E E E  4x
||---------------------------------||-|
||o-------------------------------o||-|
||------------------7-7-7-5-5-5-5--||-|
||------------------7-7-7-5-5-5-5--||-|
||o-7-7-7-6-6-6-6-6-5-5-5-3-3-3-3-o||-|
||--5-5-5-5-5-5-5-5----------------||-|


    Q=140
    E E E E E E E E   E E  E  E   E E E E E E E E E E E E E Q
||------------------|-------------------------------------------||
||o-----------------|------------------------------------------o||
||------------------|-------------------------------------------||
||------5-----7-----|-9---10s=9-------5-----7-----9-----5-------||
||o-----5-----7-----|-9---10--9-------5-----7-----9-----5------o||
||--0-0-3-0-0-5-0-0-|-7-0--8--7---0-0-3-0-0-5-0-0-7-0-0-3-0-1---||
|
|   E E E E E E E E   E E  E  S S E E E E E E E E E E E E E Q
||------------------|-------------------------------------------||
||o-----------------|------------------------------------------o||
||------------------|-------------------------------------------||
||------4-----5-----|-7----9s10s9-----4-----5-----7-----9-9-9---||
||o-----4-----5-----|-7----9-10-9-----4-----5-----7-----9-9-9--o||
||--0-0-2-0-0-3-0-0-|-5-0--7--8-7-0-0-2-0-0-3-0-0-5-0-0-7-7-7---||


   ~~~~~
   H           E E E E E E E E. E E E E E E. E E E E E E E E. E E E E E Q    4x
|-24b26----||----------------------------------------------------------------||
|----------||o--------------------------------------------------------------o||
|----------||--6-6-6-6-6-6-6-5--5-5-5-5-5-5--4-4-4-4-4-4-4-5--5-5-5-5-5-5----||
|----------||--4-4-4-4-4-4-4-3--3-3-3-3-3-3--2-2-2-2-2-2-2-3--3-3-3-3-3-3----||
|----------||o--------------------------------------------------------------o||
|----------||----------------------------------------------------------------||
|
|  H           E E E E E E E E. E E E E E E. E E E E E E E E. E E E E E Q    4x
|----------||----------------------------------------------------------------||
|----------||o--------------------------------------------------------------o||
|----------||--9-9-9-9-9-9-9-8--8-8-8-8-8-8--7-7-7-7-7-7-7-8--8-8-8-8-8-8----||
|----------||--7-7-7-7-7-7-7-6--6-6-6-6-6-6--5-5-5-5-5-5-5-6--6-6-6-6-6-6----||
|----------||o--------------------------------------------------------------o||
|----------||----------------------------------------------------------------||


    E E E. E.  E.. E E E. E. E.. E E E. E.  E. E. E. E. E.  4x
||----------------------------------------------------------||-|
||o--------------------------------------------------------o||-|
||----------------------------------------------------------||-|
||----------------------------------------------------------||-|
||o-----7--7---8-------7--7--6-------7--7---8--7--6--5--6--o||-|
||--0-0------------0-0-----------0-0------------------------||-|
|
|   E E E. E.  E.. E E E. E. E.. E E E. E.  E. E. E. E. E.  4x
||----------------------------------------------------------||-|
||o--------------------------------------------------------o||-|
||----------------------------------------------------------||-|
||------9--9--10-------9--9--8-------9--9--10--9--8--7--8---||-|
||o-----9--9--10-------9--9--8-------9--9--10--9--8--7--8--o||-|
||--0-0-7--7---8---0-0-7--7--6---0-0-7--7---8--7--6--5--6---||-|


      E E E E E E E E. E E E E E E. E E E E E E E E. E E E E E Q
|-||----------------------------------------------------------------||
|-||o--------------------------------------------------------------o||
|-||--6-6-6-6-6-6-6-5--5-5-5-5-5-5--4-4-4-4-4-4-4-5--5-5-5-5-5-5----||
|-||--4-4-4-4-4-4-4-3--3-3-3-3-3-3--2-2-2-2-2-2-2-3--3-3-3-3-3-3----||
|-||o--------------------------------------------------------------o||
|-||----------------------------------------------------------------||
|
|     E E E E E E E E. E E E E E E. E E E E E E E E. E E E E E Q
|-||----------------------------------------------------------------||
|-||o--------------------------------------------------------------o||
|-||--9-9-9-9-9-9-9-8--8-8-8-8-8-8--7-7-7-7-7-7-7-8--8-8-8-8-8-8----||
|-||--7-7-7-7-7-7-7-6--6-6-6-6-6-6--5-5-5-5-5-5-5-6--6-6-6-6-6-6----||
|-||o--------------------------------------------------------------o||
|-||----------------------------------------------------------------||


    Q=120
    E S S E S S E S S E S S E S S E S S Q  Q
||--------------------------------------------------||
||o------------------------------------------------o||
||--5-----6-----5-----6-----5-----6-----5-----------||
||--5-----6-----5-----6-----5-----6-----x-----------||
||o-3-0-0-4-0-0-3-0-0-4-0-0-3-0-0-4-0-0-3----------o||
||--------------------------------------------------||
|
|   E S S E S S E S S E S S E S S E S S Q  S S S S
||--------------------------------------------------||
||o------------------------------------------------o||
||-----------------------------------------2p0------||
||--2-----3-----2-----3-----2-----3-----2------1p0--||
||o-2-----3-----2-----3-----2-----3----------------o||
||--0-0-0-1-0-0-0-0-0-1-0-0-0-0-0-1-0-0-0-----------||


      Q=140
      E E E E E E E E. E E E E E E. E E E E E E E E. E E E E E Q
|-||----------------------------------------------------------------||
|-||o--------------------------------------------------------------o||
|-||--6-6-6-6-6-6-6-5--5-5-5-5-5-5--4-4-4-4-4-4-4-5--5-5-5-5-5-5----||
|-||--4-4-4-4-4-4-4-3--3-3-3-3-3-3--2-2-2-2-2-2-2-3--3-3-3-3-3-3----||
|-||o--------------------------------------------------------------o||
|-||----------------------------------------------------------------||
|
|     E E E E E E E E. E E E E E E. E E E E E E E E. E E E E E Q
|-||----------------------------------------------------------------||
|-||o--------------------------------------------------------------o||
|-||--9-9-9-9-9-9-9-8--8-8-8-8-8-8--7-7-7-7-7-7-7-8--8-8-8-8-8-8----||
|-||--7-7-7-7-7-7-7-6--6-6-6-6-6-6--5-5-5-5-5-5-5-6--6-6-6-6-6-6----||
|-||o--------------------------------------------------------------o||
|-||----------------------------------------------------------------||

[ Tab from: http://www.guitaretab.com/m/misc-unsigned-bands/117419.html ]
    E E E E Q.   E E E E Q  E E E E E. E. E.
||--------------------------------------------||-|
||o-0-7-7-0-6----0-7-7-0-8--0-7-7-0-6--5--4--o||-|
||--------------------------------------------||-|
||--------------------------------------------||-|
||o------------------------------------------o||-|
||--------------------------------------------||-|
|
|   E E E E Q.   E E E E Q  E E E E E. E. E.
||--------------------------------------------||-|
||o------------------------------------------o||-|
||--0-7-7-0-6----0-7-7-0-8--0-7-7-0-6--5--4---||-|
||--------------------------------------------||-|
||o------------------------------------------o||-|
||--------------------------------------------||-|


      Q=140
      E E E E E E E E. E E E E E E. E E E E E E E E. E E E E E Q
|-||----------------------------------------------------------------||
|-||o--------------------------------------------------------------o||
|-||--6-6-6-6-6-6-6-5--5-5-5-5-5-5--4-4-4-4-4-4-4-5--5-5-5-5-5-5----||
|-||--4-4-4-4-4-4-4-3--3-3-3-3-3-3--2-2-2-2-2-2-2-3--3-3-3-3-3-3----||
|-||o--------------------------------------------------------------o||
|-||----------------------------------------------------------------||
|
|     E E E E E E E E. E E E E E E. E E E E E E E E. E E E E E Q
|-||----------------------------------------------------------------||
|-||o--------------------------------------------------------------o||
|-||--9-9-9-9-9-9-9-8--8-8-8-8-8-8--7-7-7-7-7-7-7-8--8-8-8-8-8-8----||
|-||--7-7-7-7-7-7-7-6--6-6-6-6-6-6--5-5-5-5-5-5-5-6--6-6-6-6-6-6----||
|-||o--------------------------------------------------------------o||
|-||----------------------------------------------------------------||


    T     T     T     T     T     T      T     T      T      T      T
    S S S S S S S S S S S S S S S S S S  S S S S  S S S S  S S S S  S S S S  S
||-------------------------------------------------------------------------------|
||o------------------------------------------------------------------------------|
||-------------------------------------------------------------------------------|
||-------------------------------------------------------------------------------|
||o------------------------------------------------------------------------------|
||--7p0h4-7p0h4-7p0h4-7p0h4-7p0h4-7p0h4--8p0h5-8p=0h5-8p0h=5-8p0h5--8p0h5-8p=0h==|
|
|   E   E   E   E   E   E   E   E   E    E   E    E   E    E   E    E   E    E
||-------------------------------------------------------------------------------|
||o------------------------------------------------------------------------------|
||-------------------------------------------------------------------------------|
||-------------------------------------------------------------------------------|
||o-----9-------9-------9-------9-------10-------10-------10-------10-------10---|
||--7---7---7---7---7---7---7---7---7----8---8----8---8----8---8----8---8----8---|


    T      T      T     T      T      T      T       T       T       T       T       T
  S S S  S S S S  S S S S  S S S S  S S S S  S S  S  S  S S  S S  S  S  S S  S S  S  S   3x
|----------------------------------------------------------------------------------------||
|---------------------------------------------------------------------------------------o||
|----------------------------------------------------------------------------------------||
|----------------------------------------------------------------------------------------||
|---------------------------------------------------------------------------------------o||
|-5-9p0h=6-9p0h6--9p0h6-9p=0h6-9p0h=6-9p0h6-10p0h=7-10p=0h7-10p0h=7-10p=0h7-10p0h=7-10\--||
|
|   E    E   E    E   E    E   E    E   E    E    E     E    E    E     E    E    E      3x
|----------------------------------------------------------------------------------------||
|---------------------------------------------------------------------------------------o||
|----------------------------------------------------------------------------------------||
|----------------------------------------------------------------------------------------||
|-------11-------11-------11-------11-------12---------12--------12---------12---12-----o||
|---9----9---9----9---9----9---9----9---9---10---10----10---10---10----10---10---10------||


  S S S S S S S S S S S  S S S S S S  S S S  S S S  S S S  S S S  S S S  S S  S S  S S  SS  S S S S
|-------------------------------------------------------------------------------------------------|
|0-0-7-0-0-9-0-0-8-0-0-10-0-0-9-0-0-11-0-0-10-0-0-12-0-0-11-0-0-13-0-0-12-0-14-0-13-0-15-0-140-160|
|-------------------------------------------------------------------------------------------------|
|-------------------------------------------------------------------------------------------------|
|-------------------------------------------------------------------------------------------------|
|-------------------------------------------------------------------------------------------------|
|
| E   E   E   E   E   E    E   E   E    E    E   E    E    E   E    E    E    E    E    E   E  E
|-------------------------------------------------------------------------------------------------|
|-------------------------------------------------------------------------------------------------|
|-------------------------------------------------------------------------------------------------|
|-5---5---5---5---5---5----5---5---7----7----7---7----7----7---7----7----9----9----9----9----9---9|
|-5---5---5---5---5---5----5---5---7----7----7---7----7----7---7----7----9----9----9----9----9---9|
|-3---3---3---3---3---3----3---3---5----5----5---5----5----5---5----5----7----7----7----7----7---7|


   S S  S S  S S  S S  S S  Q      Q
|----------------------------------------|
|-15-0-17-0-16-0-18-0-17-0-19b21--19b21--|
|----------------------------------------|
|----------------------------------------|
|----------------------------------------|
|----------------------------------------|
|
|  E    E    E    E    E
|----------------------------------------|
|----------------------------------------|
|----------------------------------------|
|--9----9---12---12---12-----------------|
|--9----9---12---12---12-----------------|
|--7----7---10---10---10-----------------|


  Gtr II                                                                                 
Gtr I
                                                                                         
>
   T        T        T        T
   S  T. T. S  T. T. S  T. T. S  T. T.  S  S  S  S  E     S  E     S  E     S  E     s   
W
|-----------------------------------------------12-14b16-16-16b18-18-18b20-20-20b22-24b25----|
|-19p12h15h18p12h15h19p12h15h18p12h15--------13----------------------------------------------|
|--------------------------------------12-14-------------------------------------------------|
|-----------------------------------------------------------------------------------------2--|
|-----------------------------------------------------------------------------------------2--|
|-----------------------------------------------------------------------------------------0--|


Duration Legend
---------------
W - whole; H - half; Q - quarter; E - 8th; S - 16th; T - 32nd; X - 64th; a - acciaccatura
+ - note tied to previous; . - note dotted; .. - note double dotted
Uncapitalized letters represent notes that are staccato (1/2 duration)
Irregular groupings are notated above the duration line
Duration letters will always appear directly above the note/fret number it represents the
duration for.  Duration letters with no fret number below them represent rests.  Multi-
bar rests are notated in the form Wxn, where n is the number of bars to rest for.  Low
melody durations appear below the staff

Tablature Legend
----------------
 h   - hammer-on
 p   - pull-off
 b   - bend
 pb  - pre-bend
 r   - bend release (if no number after the r, then release immediately)
 /\  - slide into or out of (from/to "nowhere")
 s   - legato slide
 S   - shift slide
  - natural harmonic
[n]  - artificial harmonic
n(n) - tapped harmonic
 ~   - vibrato
 tr  - trill
 T   - tap
 TP  - trem. picking
 PM  - palm muting
\n/  - tremolo bar dip; n = amount to dip
 \n  - tremolo bar down
 n/  - tremolo bar up
/n\  - tremolo bar inverted dip
 =   - hold bend; also acts as connecting device for hammers/pulls
 <>  - volume swell (louder/softer)
 x   - on rhythm slash represents muted slash
 o   - on rhythm slash represents single note slash

Misc Legend
-----------
 |  - bar
||  - double bar
||o - repeat start
o|| - repeat end
*|  - double bar (ending)
 :  - bar (freetime)
 $  - Segno
 &  - Coda
Tempo markers -  = BPM(8/16=s8/s16), where s8 = swing 8ths, s16 = swing 16ths


***************************************************************************************
* Generated using Power Tab Editor by Brad Larsen - http://powertab.guitarnetwork.org *
***************************************************************************************
Related for Andrew And Taylor - Peril tab
Advertisement will be closed in 10 seconds