Guitaretab - guitar tabs
Song name
# A B C D E F G H I J K L M N O P Q R S T U V W X Y Z

Misc Unsigned Bands - Gerard K Marino - The End Begins To Rock tab

This tab is only some parts that I figured out, the part after the songs start.
I need also help so I will start with that I know. I may be updating if I figure out 
more.


C drop tuning


   p p p p p p p p p p p p p p p p p p p p
-----------------------------------------------------------|
------------------------------------------------------------|
------------------------------------------------------------|
-------3-4-----6-7-----3-4-----6-7-----3-4------------------|
---5-6-----8-9-----5-6-----889-----5-6----------------------|
------------------------------------------------------------|

    p p p p
-------------------------------------------------------------
-------------------------------------------------------------
-------------------------------------------------------------
--------6-7--676-----454-------------------------------------
----8-9----------9-7-----7-5---------------------------------
-------------------------------------------------------------





The riff part after this.
                 p p            p p
------------------------------------------------------------|
------------------------------------------------------------|
------------------------------------------------------------|
-0----0----------0-0--0-0-------0-0-0--1--------------------|
-0----0----------0-0--0-0-------0-0-0--1--------------------|
-0----0----------0-0--0-0-------0-0-0--1--------------------|
[ Tab from: http://www.guitaretab.com/m/misc-unsigned-bands/117529.html ]
                 p p            p p p p
------------------------------------------------------------|
------------------------------------------------------------|
------------------------------------------------------------|
-0----0----------0-0----0-0-----4---------------------------|
-0----0----------0-0----0-0-------6-5-6-5-------------------|
-0----0----------0-0----0-0---------------------------------|

Guitar 1 & 2
                        h     h     h     h
---------------------------------------------------------------------2-------------|
------------------------------------------4-5-7--7--6--7--6--3--4-3----4-3-4-3-----|
------------------------------------4-5-7------------------------------------------|
-0-------1-------0------------4-5-7------------------------------------------------|
-0-------1-------0------4-5-7------------------------------------------------------|
-0-------1-------0-----------------------------------------------------------------|

Guitar 2 on the second part and guitar 1 plays the same one as the first part.
                        h      h      h      h        
---------------------------------------------------------------------------6------------|
---------------------------------------------7-8-10-10--9--10--9--7--8-7-----8-7-8-7----|
--------------------------------------7-8-10--------------------------------------------|
-0-------1-------3-------------7-8-10---------------------------------------------------|
-0-------1-------3------7-8-10----------------------------------------------------------|
-0-------1-------3----------------------------------------------------------------------|

This is the best I could do. It would be nice if more people could help me and many 
to make this tab. It's a awesome song! ;)
Related for Gerard K Marino - The End Begins To Rock tab
×
Gerard K Marino - The End Begins To Rock