Song name
# A B C D E F G H I J K L M N O P Q R S T U V W X Y Z

Misc Unsigned Bands - Posdm - Main Theme tab

e|---------------------------------------------------|---------|
B|---------------------------------------------------|---------|
G|-------------------------------------------7-7-8-8-|-8-8-7-7-|
D|---------------------------------------------------|---------|
A|-0-0-3h5h6p5p3-0-0-3h5h6p5p3-0-0-3h5h6p5p3-5-5-6-6-|-6-6-5-5-|
E|-0-0-----------0-0-----------0-0-------------------|---------|

e|------------------------------------------------------|---------|
B|------------------------------------------------------|---------|
G|----------------------------------------------7-7-8-8-|-8-8-7-7-|
D|------------------------------------------------------|---------|
A|-0-0-3h5h6p5p3--0-0-3h5h6p5p3--0-0--3h5h6p5p3-5-5-6-6-|-6-6-5-5-|
E|-0-0------------0-0------------0-0--------------------|---------|
 |                                                      |         |
e|------------------------------------------------------|---------|
B|------------------------------------------------------|---------|
G|------------------------------------------------------|---------|
D|------------------------------------------------------|---------|
A|-0-0-6h8h10p8p6-0-0-6h8h10p8p6-0-0-6h8h10p8p6-5-5-6-6-|-6-6-5-5-|
E|-0-0------------0-0------------0-0------------3-3-4-4-|-4-4-3-3-|

e|---------------------------------------|
B|---------------------------------------|
G|---------------------------------------|
D|----------12p14p15-14~-14-15-12/15-14~-|
A|-12p14p15------------------------------|
E|---------------------------------------|
 |                                       |
e|---------------------------------------|
B|----------15h17h18-17~-17-18-15/18-17~-|
G|-14h16h17------------------------------|
D|---------------------------------------|
A|---------------------------------------|
E|---------------------------------------|
 |                                       |
e|---------------------------------------|
B|---------------------------------------|
G|---------------------------------------|
D|-9---------------------12--------------|
A|-7---------------------10--------------|
E|---------------------------------------|

e|--------------------------------------|
B|--------------------------------------|
G|-14-12--------------------------------|
D|-------15-14-12----------15-12/15-14~-|
A|----------------15-14-12--------------|
E|--------------------------------------|
 |                                      |
e|-17-15--------------------------------|
B|-------18-17-15----------18-15/18-17~-|
G|----------------17-16-14--------------|
D|--------------------------------------|
A|--------------------------------------|
E|--------------------------------------|
 |                                      |
e|--------------------------------------|
B|--------------------------------------|
G|--------------------------------------|
D|-11----------------------12-----------|
A|-9-----------------------10-----------|
E|--------------------------------------|

e|-5h7p5-------------3h5p3---------------|
B|-------6-5---------------5-3-----------|
G|-----------7-5---------------5-4-------|
D|---------------7-5---------------3h5p3-|
A|---------------------------------------|
E|---------------------------------------|
 |                                       |
e|---------------------------------------|
B|---------------------------------------|
G|---------------------------------------|
D|-5-----------------3-------------------|
A|-3-----------------1-------------------|
E|---------------------------------------|

e|-8h10p8---------8-10~-13p12p10-12-8~--13-12-10-----------|
B|--------10-8-10--------------------------------13-12-10~-|
G|---------------------------------------------------------|
D|---------------------------------------------------------|
A|---------------------------------------------------------|
E|---------------------------------------------------------|
 |                                                         |
e|---------------------------------------------------------|
B|---------------------------------------------------------|
G|---------------------------------------------------------|
D|-10------10------10------12-------------14-----16--------|
A|-8-8-8-8-8-8-8-8-8-8-8-8-10-10-10-10-10-12-----14--------|
E|---------------------------------------------------------|

e|-8-7-5-5-(x4)--10-8-7-7-(x4)--12-10-(x4)-13-12-(x4)-|
B|----------------------------------------------------|
G|----------------------------------------------------|
D|----------------------------------------------------|
A|----------------------------------------------------|
E|----------------------------------------------------|
 |                                                    |
e|------------------------------8--7-(x4)--10--8-(x4)-|
B|-10-8-6-6-(x4)-12-10-8-8-(x4)-----------------------|
G|----------------------------------------------------|
D|----------------------------------------------------|
A|----------------------------------------------------|
E|----------------------------------------------------|

e|-17-15-13----------15-13-12----------|-17-15-13-------17-15-17~-|
B|----------17-15-13----------15-13-12-|----------15-17-----------|
G|-------------------------------------|--------------------------|
D|-------------------------------------|--------------------------|
A|-------------------------------------|--------------------------|
E|-------------------------------------|--------------------------|
 |                                     |                          |
e|-13-12-10----------12-10-8-----------|-13-12-10-------13-12-13~-|
B|----------13-12-10---------12-10-8---|----------12-13-----------|
G|-------------------------------------|--------------------------|
D|-------------------------------------|--------------------------|
A|-------------------------------------|--------------------------|
E|-------------------------------------|--------------------------|
Tap to rate this tab
# A B C D E F G H I J K L M N O P Q R S T U V W X Y Z