Song name
# A B C D E F G H I J K L M N O P Q R S T U V W X Y Z

Misc Unsigned Bands - Novella - We Are The Undead tab

Novella
"We Are The Undead"
We Are The Undead (2008)

tabbed by Larry Irby

I dont really have much of Josh's parts but i will work on that. 
Here is my tab for this song. Hope you enjoy. I'll be putting tabs
up for their other songs off of We Are The Undead.

Things to know:
-~ let note ring
-. palm mute
-t tremelo pick
-\ slide down
-/ slide up


Tuning Drop D half step: Db Ab Db Gb Bb eb

0:00-0:11                            (x2)      
eb:-------0~-------0~-------------------:
Bb:-----10~------10~--------------------:
Gb:--------------------10~-9~----10~-9~-:
Db:-------------------------------------:
Ab:-------------------------------------:
Db:-7-7------7-7----7-7-------7-7-------:

0:12-0:37                             (x4)
eb:--------------------------------------:
Bb:--------------------------------------:
Gb:--------------------------------------:
Db:--------------------------------------:
Ab:-000000000----------------------------:
Db:-000000000-88888888-77777777-55555555-:

0:37-0:48 (with little delay)
eb:-----------------:
Bb:-----------------:
Gb:-14t-12t-14t-12t-:
Db:-----------------:
Ab:-----------------:
Db:-----------------:

0:50-1:14                                                   (x4)
eb:------------------------------------------------------------:
Bb:------------------------------------------------------------:
Gb:--------10101010---------9999---------10101010--------------:
Db:---------8-8-8-8---------7777----------8-8-8-8--------------:
Ab:-0000000-8-8-8-8-0000000-7777-0000000--8-8-8-8-00-00--00-00-:
Db:-0000000-8-8-8-8-0000000-7777-0000000--8-8-8-8-00-00--00-00-:
    .......         .......      .......          .. ..  .. ..

1:14-1:39                                          (x4)
eb:-------------------------------------------------:
Bb:-------------------------------------------------:
Gb:-77--------77----77----66------------------------:
Db:-xx--------xx----xx----xx------------------------:
Ab:-55-000000-55-00-55-00-44-000000-0000-00-0000-00-:
Db:----000000----00----00----000000-0000-00-0000-00-:
       ......    ..    ..    ...... .... .. .... ..

1:40-1:51
eb:------------------------------------:
Bb:------------------------------------:
Gb:------------------------------------:
Db:-0~---0~--0~---0~--0~---0~--0~---0~-:
Ab:-0~-0-0~--0~-0-0~--0~-0-0~--0~-0-0~-:
Db:-0~-0-0~--0~-0-0~--0~-0-0~--0~-0-0~-:
       .        .        .        .

1:52-2:18
eb:-----------------------------------------------------:
Bb:-----------------------------------------------------:
Gb:-----------------------------------------------------:
Db:-----8~-7~---------8~-7~---------8~-7~---------8~-7~-:
Ab:-5-5-------5\3/5-5-------5\3/5-5-------5\3/5-5-------:
Db:-----------------------------------------------------:

2:18-2:49             (x10)  
eb:----------------------:
Gb:----------------------:
Bb:----------------------:
Db:----------------------:
Ab:-----555--------------:
Db:-000-----888-555-7777-:

             
2:49-3:14(sweet breakdown time)                             (x4)
eb:------------------------------------------------------------:
Gb:------------------------------------------------------------:
Bb:------------------------------------------------------------:
Db:-1----------------------------------------------------------:
Ab:-1-000-000-000-000-000-000-------777-777-777-777-777--------:
Db:-1-000-000-000-000-000-000-5-8-7-777-777-777-777-777-8-7\\\-:
      ... ... ... ... ... ...       ... ... ... ... ...

3:14-end
eb:------------------------------------:
Gb:------------------------------------:
Bb:------------------------------------:
Db:-0~---0~-0~---0~--0~---0~---0~---0~-:
Ab:-0~-0-0~-0~-0-0~--0~-0-0~---0~-0-0~-:
Db:-0~-0-0~-0~-0-0~--0~-0-0~---0~-0-0~-:
       .       .        .         .


You can email me at: irbyl@cg61.navy.mil for questions/comments.
thank you
(I've put up other tabs for Burden of a Day, and Before Their Eyes.)
Tap to rate this tab
 
# A B C D E F G H I J K L M N O P Q R S T U V W X Y Z