Song name
# A B C D E F G H I J K L M N O P Q R S T U V W X Y Z

Misc Unsigned Bands - Misc Unsigned Band - Affliction tab

Help us improve GuitareTab! Take a short survey!
|-------------------------------------------|-----------------------------------|
|-------------------------------------------|-----------------------------------|
|-------------------------------------------|-----------------------------------|
|-312-5-3--4~-312-00--------3*-000-312-35-5*|-312-5-3--4~-312-00--------3-------|
|-312-5-3--4~-312-00-7-8-------000-312-24---|-312-5-3--4~-312-00-7-8-----5-4----|
|-312-5-3--4~-312-00-----5-4---000-312-13---|-312-5-3--4~-312-00-----5-4----8-7-|
pm... . .     ... ..           ... ...        ... . .     ... ..

|----------------------------------------------------|-----------------------|
|---------------------------------------------12-----|-----------------------|
|-------------------------------------12-13-15--13-12|-----------------------|
|--------3-------312--4~-------9-10-13---------------|--------3-------312--4~|
|-7-8-----5-4----312--4~-7-8-11----------------------|-7-8-----5-4----312--4~|
|-----5-4----8-7-312--4~-----------------------------|-----5-4----8-7-312--4~|
pm               ...                                                  ...

|-----------------------------|---------------------|
|----------------------12-----|---------------------|
|--------------12-13-15--13-12|------12-9-----------|
|-------9-10-13---------------|-350~-----11-8-------|
|-7-8-------------------------|-240~---------10-7---|
|----5-4----------------------|-130~-------------8-4|

|--------------------------------------|-----------------------------------|
|--------------------------------------|-----------------------------------|
|----------------------------------7h10|-----------------------------------|
|-------------------------------6h9----|-312-5-3--00-0-0-0-0-3*-00-0-0-000-|
|----------0h5h6p5-----------5h8-------|-312-5-3--00-0-0-0-0----00-0-0-000-|
|-0004h7000-------0004h5h7000----------|-312-5-3--00-0-0-0-0----00-0-0-000-|
pm...   ...       ...     ...            ... . .  .. . . . .    .. . . ...

|----------------------------|--------------------------------------|
|----------------------------|--------------------------------------|
|----------------------------|--------------------------------------|
|-00-0-0-0-0-000-00-0-0-3/5/2|-00-0-0-000-000-0-000-00--3/5-8*------|
|-00-0-0-0-0-000-00-0-0-2/4/2|-00-0-0-000-000-0-000-00--2/4---7-8---|
|-00-0-0-0-0-000-00-0-0-1/3/0|-00-0-0-000-000-0-000-00--1/3------5-4|
pm.. . . . . ... .. . .        .. . . ... ... . ... ..
Related for Misc Unsigned Band - Affliction tab