Song name
# A B C D E F G H I J K L M N O P Q R S T U V W X Y Z

Misc Unsigned Bands - Isaryce - The Black Moon tab

---------------------------------|x8|
---------------------------------|x8|
---------------------------------|x8|
---------------------------------|x8|
--------2---2---1---1---0---0----|x8|
1-0-1-0---0---0---0---0---0---0--|x8|

-------------------------------------13-13-13-13-12-12-12-12--------------|x2|
--------------------------------------------------------------------------|x2|
--------------------------------------------------------------------------|x2|
--------------------------------------------------------------------------|x2|
-0-0-0-0-2-3-0-0-0-0-4-5-0-0-0-0-6-7--------------------------------------|x2|
--------------------------------------------------------------------------|x2|

-------------------------------------------------|x3|
-------------------------------------------------|x3|
-------------------------------------------------|x3|
-------------------------------------------------|x3|
-0-0-0-0-3--0-0-0-0-5--0-0-0-0-6-5-3-5-3-0---0---|x3|
-------------------------------------------3-----|x3|

-------------------------------------------------------------------------------|
-------------------------------------------------------------------------------|
-------------------------------------------------------------------------------|
-------------------------------------------------------------------------------|
-0-0-0-3--0-0-0-0-5--0-0-0-0-6-5-3-5-3-0---0-6-5-3-5-3-0---0-6-5-3-5-3-0-------|
-----------------------------------------3---------------3---------------3-1-0-|

-----------------------------7-9/11/9-9-11-12-11-12-14-15-14-14-15-17--------|
-----------------------7-7h9-------------------------------------------------|
-------------------9p7-------------------------------------------------------|
---------------9p7-----------------------------------------------------------|
-----------9p7---------------------------------------------------------------|
-3-0-5-7h9-------------------------------------------------------------------|

-19-19-19-19-19-19-19-19-19-19-19-19-19-19-19-19-19-19-19-19--17-16-----------|
--------------------------------------------------------------------17--------|
------------------------------------------------------------------------------|
------------------------------------------------------------------------------|
------------------------------------------------------------------------------|
------------------------------------------------------------------------------|

-15-14----13-12----11-10----8p7h8p7h8p7---------------------------------------|
-------15-------13-------11------------7-8p7h8ph78p7--6p5hp6p5h6p5------------|
----------------------------------------------------7-------------5-----------|
------------------------------------------------------------------------------|
------------------------------------------------------------------------------|
------------------------------------------------------------------------------|

-------------------------------------------------------------------------------|
-4p3h4p3h4p3-------------------------------------------------------------------|
------------3---5-3-1----------------------------------------------------------|
----------------------4-2-0----------------------------------------------------|
--------------6-------------4-2-0----------------------------------------------|
----------------------------------4-2-0-0-3-5-0-6-5-3-0-0-3-0-5-0-6-5----------|

---------------------------------|x3|
---------------------------------|x3|
---------------------------------|x3|
---------------------------------|x3|
-0-0-3-5-0-6-5-3-0-0-3-0-5-0-6-5-|x3|
-0-0-3-5-0-6-5-3-0-0-3-0-5-0-6-5-|x3|

-------------------------------------------------|x3|
-------------------------------------------------|x3|
-------------------------------------------------|x3|
-------------------------------------------------|x3|
-0-0-0-0-3--0-0-0-0-5--0-0-0-0-6-5-3-5-3-0---0---|x3|
-------------------------------------------3-----|x3|

-------------------------------------------------------------------------------|
-------------------------------------------------------------------------------|
-------------------------------------------------------------------------------|
-------------------------------------------------------------------------------|
-0-0-0-3--0-0-0-0-5--0-0-0-0-6-5-3-5-3-0---0-6-5-3-5-3-0---0-6-5-3-5-3-0-------|
-----------------------------------------3---------------3---------------3-1-0-|

--------------------------------------------------------------------------|x2|
--------------------------------------------------------------------------|x2|
--------------------------------------------------------------------------|x2|
--------------------------------------------------------------------------|x2|
-0-0-0-0-2-3-0-0-0-0-4-5-0-0-0-0-6-7-0-0-0-0-8-9--------------------------|x2|
--------------------------------------------------------------------------|x2|

------------------------------------------------------------------------------|
------------------------------------------------------------------------------|
------------------------------------------------------------------------------|
------------------------------------------------------------------------------|
-0-0-0-0-8-7-0-0-0-0-6-5-0-0-0-0-4-3-0-0-0-0-2-1------------------------------|
------------------------------------------------------------------------------|

-----------------------------------------------------------------------------|x2|
-----------------------------------------------------------------------------|x2|
-----------------------------------------------------------------------------|x2|
-----------------------------------------------------------------------------|x2|
--------2---2---1---1---0---0---4---4---7---7---3---3---4---4---1---1---2---2|x2|
1-0-1-0---0---0---0---0---0---0---0---0---0---0---0---0---0---0---0---0---0--|x2|

---------------------------------|x8|
---------------------------------|x8|
---------------------------------|x8|
---------------------------------|x8|
--------2---2---1---1---0---0----|x8|
1-0-1-0---0---0---0---0---0---0--|x8|
Tap to rate this tab
# A B C D E F G H I J K L M N O P Q R S T U V W X Y Z