Song name
# A B C D E F G H I J K L M N O P Q R S T U V W X Y Z

Misc Unsigned Bands - Discovery Of A Lifelong Error - Small Talks Going To Get My Throat Cut tab

Song:Small Talk's Going To Get My Throat Cut
Author:Discovery Of A LifeLong Error
tabbed by: steve sanchez(inca)(imhappyfor)(xhihix)

intro/verse
e-----------------------------------------------------------------|
b-----------------------------------------------------------------|
g---11-x5---10-x2-11-x5--10-x2----11-x5---10-x2--x12x12x12x12-----|
d---9-------8-----9------8--------9-------8------x11x11x11x11-----|  }x2
a---8-------7-----8------7--------8-------7------x10x10x10x10-----|
E-----------------------------------------------------------------|

end on this in the intro and first verse time
e-------|
b-------|
g---11~~|
d---9~~-|
a---8~~-|
E-------|


repeat intro/verse.


then on pre-whaterver its

e----------------------------|
b----------------------------|
g-12-x2-11---10-X6-11--------|
d-11----9----8-----9---------| }X2
a-10----8----7-----8---------|
E----------------------------|

e--------------------------------------------------------------------------------|
b--------------------------------------------------------------------------------|
g---------------------------------------------------------------x12x12x12x12-----|
d-9-8-5---------------9-8-5-------------9-8-5-------------------x11x11x11x11-----|X2
a-------9-6p-5h-6p-5-------9-6p-5h-6p-5-------9-6p-5h-6p-5------x10x10x10x10-----|
E--------------------------------------------------------------------------------|


repeat intro/verse but instead of 2 times do it 4 times .


outro is in the clean channel.
its these chords repeated faster and faster and then at the end really slow.

e-------------------------------|
b---15---14---13----------------|
g---13---12---11----------------|
d-------------------------------|
a-------------------------------|
E-------------------------------|


so yea thats it if you have question's send them to me at superheromanman@gmail.com
Tap to rate this tab
# A B C D E F G H I J K L M N O P Q R S T U V W X Y Z