Song name
# A B C D E F G H I J K L M N O P Q R S T U V W X Y Z

Misc Unsigned Bands - Discovery Channel - Boom De Ah Da tab

I got this as notes from online via, http://img508.imageshack.us/my.php?image=vimdeyadatl8.jpg,
While playing the chord progression for another guitar is G E AM D

E|--0--0-----------|--1--1--0-----0--1--|--3--3--1--0--3--|--5--5--3--1--0----|
B|--------3--1--1--|-----------3--------|-----------------|-----------------3-|
G|-----------------|--------------------|-----------------|-------------------|
D|-----------------|--------------------|-----------------|-------------------|
A|-----------------|--------------------|-----------------|-------------------|
E|-----------------|--------------------|-----------------|-------------------|

E|-----------------------------------|--|
B|--1--1--0-----1--3--3--1--0--------|--|
G|-----------2-----------------2--0--|--|
D|-----------------------------------|--|
A|-----------------------------------|--|
E|-----------------------------------|--|

E|--------------|--------------|--------------|--------------|
B|--1--1--1--1--|--------------|--3--3--3--3--|--------------|
G|--------------|--2--2--2--2--|--------------|--0--0--0--0--|
D|--------------|--------------|--------------|--------------|   repeat until finished
A|--------------|--------------|--------------|--------------|
E|--------------|--------------|--------------|--------------|
Tap to rate this tab
# A B C D E F G H I J K L M N O P Q R S T U V W X Y Z