Song name
# A B C D E F G H I J K L M N O P Q R S T U V W X Y Z

Misc Unsigned Bands - Bj Frump The Grundles - Good Behavior tab

Good Behavior (A Place For Your Bosoms)
By: Kyle Mcnamara, Ethan Myers, & Zack Cucinotta
Tabbed by: Ethan

ORDER:
Intro
Main Riff
Verse
Chorus
Main Riff
Verse
Chorus
Solo (Gtr2)
  Main Riff x2 (Gtr1)
  Chorus (Gtr1)
Intro (with singing)
Chorus
End

=====================================================
RHYTHM GUITAR (Gtr1)
=====================================================

intro:
   B B   G#G#  E E   F#F#  B B   G#G#  E E   F#
e|-7-7---4-4---0-0---2-2---7-7---4-4---0-0---2-xxx--|
B|-7-7---4-4---0-0---2-2---7-7---4-4---0-0---2-xxx--|
G|-8-8---5-5---1-1---3-3---8-8---5-5---1-1---3-xxx--|
D|-9-9---6-6---2-2---4-4---9-9---6-6---2-2---4-xxx--|
A|-9-9---6-6---2-2---4-4---9-9---6-6---2-2---4-xxx--|
E|-7-7---4-4---0-0---2-2---7-7---4-4---0-0---2-xxx--|


main riff:
   G#5       E5        B5        F#5
e|-----------------------------------------|
B|-----------------------------------------|
G|-----------------------------------------|
D|-6-66-666--2-22-222--9-99-999--4-44-444--|
A|-6-66-666--2-22-222--9-99-999--4-44-444--|
E|-4-44-444--0-00-000--7-77-777--2-22-222--|  x2


verse:
    G#5      E5       B5       F#5
e|-----------------------------------------|
B|-----------------------------------------|
G|-----------------------------------------|
D|--66666666-22222222-99999999-44444444----|
A|--66666666-22222222-99999999-44444444----|
E|--44444444-00000000-77777777-22222222----|  x4

  you sorta palm mute the A and D strings on these power chords
  until the last time on the B5 and F#5, play all three strings loud.


chorus:
    A5                 E5
e|-----------------------------------------|
B|-----------------------------------------|
G|-----------------------------------------|
D|--7-77-777-7-77-777--2-22-222-2-22-222---|
A|--7-77-777-7-77-777--2-22-222-2-22-222---|
E|--5-55-555-5-55-555--0-00-000-0-00-000---| x3 

    F#5                B5
e|-----------------------------------------| 
B|-----------------------------------------| 
G|-----------------------------------------| 
D|--4-44-444-4-44-444--9-99-999-9-x-x-x----|
A|--4-44-444-4-44-444--9-99-999-9-x-x-x----|
E|--2-22-222-2-22-222--7-77-777-7-x-x-x----| x1




===========================================
BASS
===========================================

intro:
(no bass)

main riff:
    G#5      E5      B5      F#5
G|----------------------------------|
D|----------------------------------|
A|--7--9--11-9--7----------7-9--7---|
E|-----------------9-7--9-----------|
   
    G#5      E5      B5   F#5   
G|----------------------------------|
D|----------------------------------|
A|--7--9--11-9--7-------------------|
E|-----------------9-7----5-4-2-0---|


verse:
    G#5     E5      B5       F#5
G|------------------------------------------------|
D|------------------------------------------------|
A|----------7--7--7---------/12-11-9-7------------|
E|--9--9--9---------7--7--7-----------------------| x3
    
    G#5     E5      B5       F#5
G|------------------------------------------------|
D|------------------------------------------------|
A|----------7--7--7-------------------------------|
E|--9--9--9---------7--7--7-/9~-------------------| x1


chorus:
    A5            E5             A5
G|------------------------------------------------|
D|------------------------------------------------|
A|--7~---7-9-11-9------------7-9-9p7-7~-----------|
E|----------------9p7-7--7-9----------------------|

   (A5)           E5
G|------------------------------------------------|
D|---------7-9----11-9-7--------------------------|
A|--7-9-11---------------11-7~---7-9-11-9---------|
E|----------------------------------------9p7-7---|

G|------------------------------------------------|
D|------------------------9----11-9-7-------------|
A|------7-9--------7-9-11-------------11----------|
E|--7-9-----9~---9--------------------------------| (back to main riff)
Tap to rate this tab
 
# A B C D E F G H I J K L M N O P Q R S T U V W X Y Z