Song name
# A B C D E F G H I J K L M N O P Q R S T U V W X Y Z

Misc Unsigned Bands - Dinosaur Dance Party - The Dinosaur Song tab

-------------------------------------------------------------------------------
               The Dinosaur Song - Dinosaur Dance Party
-------------------------------------------------------------------------------
Tabbed by:The Party God
Email:codiackilla@hotmail.com

Tuning:Full Step Down
                                                                  play x2
e|--------------------------------------------------------------------------|
B|--------------------------------------------------------------------------|
G|--------------------------------------------------------------------------|
D|--------------------------------------------------------------------------|
A|-----------------1-1-1-1---------------------------------4-4-3-3----------|
E|-1-1-1-1-4-4-4-4---------2-2-2-2-1-1-1-1-4-4-4-4-6-6-6-6------------------|
   . . . . . . . . . . . . . . . . . . . . . . . . . . . . . . . .
                                                     play x2
e|--------------------------------------------------------------------------|
B|--------------------------------------------------------------------------|
G|--------------------------------------------------------------------------|
D|--------------------------------------------------------------------------|
A|-----------------1-1-1-1---------------------------------4-4-3-3----------|
E|-1-1-1-1-4-4-4-4---------2-2-2-2-1-1-1-1-4-4-4-4-6-6-6-6------------------|

e|--------------------------------------------------------------------------|
B|--------------------------------------------------------------------------|
G|--------------------------------------------------------------------------|
D|-5-4-3-2---3-2-3-2-1-0-3-2-3-2-4-5-3-2-3-2-2/-3-2-3-2-1-0-3-2-3-4-5-6-----|
A|-5-4-3-2---3-2-3-2-1-0-3-2-3-2-4-5-3-2-3-2-2/-3-2-3-2-1-0-3-2-3-4-5-6-----|
E|-3-2-1-0------------------------------------------------------------------|

e|--------------------------------------------------------------------------|
B|--------------------------------------------------------------------------|
G|--------------------------------------------------------------------------|
D|-3-2-3-6-5-4-3-2-3-2-1-0-3-2-3-2-4-5-3-2-3-2-2/-3-2-3-2-1-0-3-2-3-4-5-6---|
A|-3-2-3-6-5-4-3-2-3-2-1-0-3-2-3-2-4-5-3-2-3-2-2/-3-2-3-2-1-0-3-2-3-4-5-6---|
E|--------------------------------------------------------------------------|

e|--------------------------------------------------------------------------|
B|--------------------------------------------------------------------------|
G|--------------------------------------------------------------------------|
D|-3-2-3-6-5-4-3-3-3-2-3-0--------------------------------------------------|
A|-3-2-3-6-5-4-3-3-3-2-3-0--------------------------------------------------|
E|--------------------------------------------------------------------------|

                                                                            | / slide up
| . mute note
===============================================================================
Tap to rate this tab
 
# A B C D E F G H I J K L M N O P Q R S T U V W X Y Z