Song name
# A B C D E F G H I J K L M N O P Q R S T U V W X Y Z

Misc Unsigned Bands - Gurrney - Home tab

Tuning: D,G,A#,D#,A,D

Intro: 3X
d|--0------0----------------0----------------------------------------------|
A|----1------2----3--------2-----------------------------------------------|
D#|--0------2---------0---4------------------------------------------------|
A#|------------------2---4-------------------------------------------------|
G|-------3----0-----3------------------------------------------------------|
D|-------------------------------------------------------------------------|

Verse: 2x
d|-----0--0-0--0-0--0-0----------------------------------------------------|
A|-----3--3-3--3-3--3-3----------------------------------------------------|
D#|----1--1-1--1-1--1-1----------------------------------------------------|
A#|----2--2-2--2-2--2-2-----4--4-4--4-4--4-4-------------------------------|
G|--------------------------5--5-5--5-5--5-5-------------------------------|
D|--------------------------3--3-3--3-3--3-3-------------------------------|

Chorus: 2X
d|-------------------------------------------------------------------------|
A|-------------------------------------------------------------------------|
D#|------------------------------------------------------------------------|
A#|------------------------------------------------------------------------|
G|---12-12--9-9--5-5--7-7--------------------------------------------------|
D|---10-10--7-7--3-3--5-5--------------------------------------------------|
Tap to rate this tab
# A B C D E F G H I J K L M N O P Q R S T U V W X Y Z