Song name
# A B C D E F G H I J K L M N O P Q R S T U V W X Y Z

Misc Unsigned Bands - Nu-heretic - Devine Agression tab

Help us improve GuitareTab! Take a short survey!
Devine Agression

Guitar 2
|-----------------|
|-----------------|
|-----------------|
|-------5---------|
|-7-5-0---3-0-2-0-|
|-----------------|
........PM.........

Both Guitars
Main Riff
|-----------------|
|-----------------|
|-----------------|
|-----------------|
|-------5---------|
|-7-5-0---3-0-2-0-|

Chorus...
|----------------------------------------|
|----------------------------------------|
|----------------------------------------|
|----------------------------------------|
|-------12---------------12--------------|
|-12-13----13-12-0-12-13----13-12-0-12-0-|

|---------------------------------------------------------|
|---------------------------------------------------------|
|---------------------------------------------------------|
|---------------------------------------------------------|
|-------12---------------12---------------12--------------|
|-12-13----13-12-0-12-13----13-12-0-12-13----13-12-0-12-0-|

|-----------------------|
|-----------------------|
|-----------------------|
|-----------------------|
|-------12--------------|
|-12-13----13-12-0-12-0-|

Main Riff
|-----------------|
|-----------------|
|-----------------|
|-----------------|
|-------5---------|
|-7-5-0---3-0-2-0-|

Interlude...
|-----------------------------|
|-----------------------------|
|-----------------------------|
|-----------------------------|
|---------2---------2-----2---|
|-0-3-2-0---0-3-2-0---0-3---0-|

Guitar 1
Main Riff
|-----------------|
|-----------------|
|-----------------|
|-----------------|
|-------5---------|
|-7-5-0---3-0-2-0-|

Guitar 2
|--------|--------|--------|-----------|
|--------|--------|--------|-----------|
|--------|--------|--------|-----------|
|--------|--------|--------|-----------|
|-12/18~~|-12/18~~|-12/19~~|-12/19/18~~|
|--------|--------|--------|-----------|

|-------------------------------------------------|
|----13----14----13----14----12----13----12----13-|
|-17----17----17----17----16----16----16----16----|
|-------------------------------------------------|
|-------------------------------------------------|
|-------------------------------------------------|

Both Guitars
Main Riff
|-----------------|
|-----------------|
|-----------------|
|-----------------|
|-------5---------|
|-7-5-0---3-0-2-0-|

Chorus...
|----------------------------------------|
|----------------------------------------|
|----------------------------------------|
|----------------------------------------|
|-------12---------------12--------------|
|-12-13----13-12-0-12-13----13-12-0-12-0-|

|---------------------------------------------------------|
|---------------------------------------------------------|
|---------------------------------------------------------|
|---------------------------------------------------------|
|-------12---------------12---------------12--------------|
|-12-13----13-12-0-12-13----13-12-0-12-13----13-12-0-12-0-|

|-----------------------|
|-----------------------|
|-----------------------|
|-----------------------|
|-------12--------------|
|-12-13----13-12-0-12-0-|

Main Riff
|-----------------|
|-----------------|
|-----------------|
|-----------------|
|-------5---------|
|-7-5-0---3-0-2-0-|

Breakdown...
|--------------------|
|--------------------|
|--------------------|
|--------------------|
|-2-2--2-2--2-2--2-2-|
|-0-0--0-0--0-0--0-0-|

Closing Riff...
|-----------------|-----------------|
|-----------------|-----------------|
|-----------------|-----------------|
|-----------------|-----------------|
|-------5---------|-----------------|
|-7-5-0---3-0-2-0-|-7-5-0-5-3-0-2-3-|
.........T.................T.........

 PM - Palm Mute
.T. - Tremulo
 ~~ - Hold Note
 /  - Slide
Related for Nu-heretic - Devine Agression tab