Song name
# A B C D E F G H I J K L M N O P Q R S T U V W X Y Z

Misc Unsigned Bands - Nu-heretic - Surrender To Sanctity tab

Surrender To Sanctity

Intro...
|-------------------------------------------------------|
|-------------------------------------------------------|
|-------------------------------------------------------|
|-0--0--0-0--0--0--0-0--0--0--0-0--0--0--0-0--0--0--0-0-|
|-4--4--4-4--4--4--4-4--4--4--4-4--4--4--4-4--4--4--4-4-|
|-3--3--3-3--3--3--3-3--3--3--3-3--3--3--3-3--3--3--3-3-|

Main Riff Part 1
|-----------------------------|
|-----------------------------|
|-----------------------------|
|-----------------------------|
|-------4-4-------4-4-----4-4-|
|-0-2-3-----0-2-3-----0-2-----|

Pre-Chorus Riff
|-------------------------|
|-------------------------|
|-------------------------|
|-------------------------|
|-----4-----4-----4-----4-|
|-0-2---0-2---0-2---0-2---|
............PM.............

|-------------------------|
|-------------------------|
|-------------------------|
|-------------------------|
|-----5-----5-----5-----5-|
|-0-2---0-2---0-2---0-2---|
............PM.............

Chorus...
|-------------------------------------------------|
|-------------------------------------------------|
|-------------------------------------------------|
|-------------------------------------------------|
|---4-5---4-5---4-5---4-5---4-5---4-5---4-5---4-5-|
|-0-2-3-0-2-3-0-2-3-0-2-3-0-2-3-0-2-3-0-2-3-0-2-3-|

Main Riff Part 2
|----------------------------|
|----------------------------|
|----------------------------|
|----------------------------|
|-------4-4------4-4-----4-4-|
|-0-2-0-----0-2-0----0-3-----|

Pre-Chorus Riff
|-------------------------|
|-------------------------|
|-------------------------|
|-------------------------|
|-----4-----4-----4-----4-|
|-0-2---0-2---0-2---0-2---|
............PM.............

|-------------------------|
|-------------------------|
|-------------------------|
|-------------------------|
|-----5-----5-----5-----5-|
|-0-2---0-2---0-2---0-2---|
............PM.............

Chorus...
|-------------------------------------------------|
|-------------------------------------------------|
|-------------------------------------------------|
|-------------------------------------------------|
|---4-5---4-5---4-5---4-5---4-5---4-5---4-5---4-5-|
|-0-2-3-0-2-3-0-2-3-0-2-3-0-2-3-0-2-3-0-2-3-0-2-3-|

Guitar 1
Main Riff Part 3
|----------------------------|
|----------------------------|
|----------------------------|
|----------------------------|
|-0-2-0-2b-0-2-0-2b-0-2-0-2b-|

Guitar 2
Solo
  T     T     T       T     T     T       T T   T T   T T     T      T      T
|-5-3p2-5-3p2-5-3p2-|-6-1p0-6-1p0-6-1p0-|-7-----7-----7-----|----------------------|
|-------------------|-------------------|---7-4---7-4---7-4-|-13-6p5-13-6p5-13-6p5-|
|-------------------|-------------------|-------------------|----------------------|
|-------------------|-------------------|-------------------|----------------------|
|-------------------|-------------------|-------------------|----------------------|
|-------------------|-------------------|-------------------|----------------------|

Both Guitars
Pre-Chorus Riff
|-------------------------|
|-------------------------|
|-------------------------|
|-------------------------|
|-----4-----4-----4-----4-|
|-0-2---0-2---0-2---0-2---|
............PM.............

|-------------------------|
|-------------------------|
|-------------------------|
|-------------------------|
|-----5-----5-----5-----5-|
|-0-2---0-2---0-2---0-2---|
............PM.............

Chorus...
|-------------------------------------------------|
|-------------------------------------------------|
|-------------------------------------------------|
|-------------------------------------------------|
|---4-5---4-5---4-5---4-5---4-5---4-5---4-5---4-5-|
|-0-2-3-0-2-3-0-2-3-0-2-3-0-2-3-0-2-3-0-2-3-0-2-3-|

 PM - Palm Mute
 T  - Tapping
Tap to rate this tab
# A B C D E F G H I J K L M N O P Q R S T U V W X Y Z