Song name
# A B C D E F G H I J K L M N O P Q R S T U V W X Y Z

Misc Unsigned Bands - Ei-come - Missed Homework tab

Intro

------------------------|
------------------------|
----7-7-----------------|  X4
----7-7--7-7--5-5--7-7--|
----5-5--7-7--5-5--7-7--|
---------5-5--3-3--5-5--|

Verse 1 X2

---------------------------------------------------------|--------------------|
---------------------------------------------------------|--------------------|
----7-7-7-7-----------------------------7-7-7-7----------|------------7-7-7-7-|
----7-7-7-7--7-7-7-7--5-5-5-5--7-7-7-7--7-7-7-7--7-7-7-7-|--5-5--7-7--7-7-7-7-|
----5-5-5-5--7-7-7-7--5-5-5-5--7-7-7-7--5-5-5-5--7-7-7-7-|--5-5--7-7--5-5-5-5-|
-------------5-5-5-5--3-3-3-3--5-5-5-5-----------5-5-5-5-|--3-3--5-5----------|


Chourus x2

----------------------------------------|
----------------------------------------|
----7-7-7-7-----------------------------|
----7-7-7-7--9-9-9-9--5-5-5-5--7-7-7-7--|
----5-5-5-5--9-9-9-9--5-5-5-5--7-7-7-7--|
-------------7-7-7-7--3-3-3-3--5-5-5-5--|

Verse 2

---------------------------------------------------------|--------------------|
---------------------------------------------------------|--------------------|
----7-7-7-7-----------------------------7-7-7-7----------|------------7-7-7-7-|
----7-7-7-7--7-7-7-7--5-5-5-5--7-7-7-7--7-7-7-7--7-7-7-7-|--5-5--7-7--7-7-7-7-|
----5-5-5-5--7-7-7-7--5-5-5-5--7-7-7-7--5-5-5-5--7-7-7-7-|--5-5--7-7--5-5-5-5-|
-------------5-5-5-5--3-3-3-3--5-5-5-5-----------5-5-5-5-|--3-3--5-5----------|

Intro

------------------------|
------------------------|
----7-7-----------------|  X4
----7-7--7-7--5-5--7-7--|
----5-5--7-7--5-5--7-7--|
---------5-5--3-3--5-5--|

Chourus (palm muted) X4

----------------------------------------|
----------------------------------------|
----7-7-7-7-----------------------------|
----7-7-7-7--9-9-9-9--5-5-5-5--7-7-7-7--|
----5-5-5-5--9-9-9-9--5-5-5-5--7-7-7-7--|
-------------7-7-7-7--3-3-3-3--5-5-5-5--|

Chourus (until the end)(no palm muted)

----------------------------------------|
----------------------------------------|
----7-7-7-7-----------------------------|
----7-7-7-7--9-9-9-9--5-5-5-5--7-7-7-7--|
----5-5-5-5--9-9-9-9--5-5-5-5--7-7-7-7--|
-------------7-7-7-7--3-3-3-3--5-5-5-5--|
Tap to rate this tab
 
# A B C D E F G H I J K L M N O P Q R S T U V W X Y Z