Song name
# A B C D E F G H I J K L M N O P Q R S T U V W X Y Z

Misc Unsigned Bands - Nutmeg - Istanbu tab

This took so long and I havent even tabbed the solo but this should be enough    
to play the song anyway


E |-3--------3-----2-----------------3-----------3-----2----------------------------|
B |-3--------3-----3-----1--3--------3-----------3-----3-----1--3-------------------|
G |-0--------0-----2-----0--0--------0-----------0-----2-----0--0-------------------|
D |-2--------0-----0-----2--4--------2-----------0-----0-----2--4-------------------|
A |-2--------2-----------3--5--------2-----------2-----------3--5-------------------|
E |-0--------3-----------------------0-----------3--------------------------------0-|
     Single Strums for the intro


E |-------3--------3--------------3--------3--------------2--------2-h-3--------------|
B |----------3--------3--------------3--------3--------3-----3-----------3------------|
G |-------------0-----------------------0-----------2-----------2---------------------|
D |----2-----------------------0-----------------0-----------------------------0h-2---|
A |-2-----------------------2--------------------------------------------------0h-3---|
E |----------------------3------------------------------------------------------------|

E |-------------------------------------3--------3--------------3--------3----------|
B |----1--------------3--------------------3--------3--------------3--------3-------|
G |-0-----0--------0-----0--------------------0-----------------------0-----------2-|
D |----------2/-4--------------------2-----------------------0-----------------0----|
A |----------3/-5-----------------2-----------------------2-------------------------|
E |----------------------------0-----------------------3----------------------------|

E |----2--------2h-3-----------------------------------------------------3--------3-|
B |-3-----3-----------3--------------1--------------3--------------------3--------3-|
G |----------2--------------------0-----0--------0-----0-----------------0--------0-|
D |-------------------------0h-2-----------2/-4--------------------------2--------0-|
A |-------------------------0h-3-----------3/-5--------------------------2--------2-|
E |----------------------------------------------------------------------0--------3-|

E |----2-----------------3-----3-----2--------------------------------0-----10----10-|
B |----3-----1--3--------3-----3-----3-----1--3-----------------------8-----10----10-|
G |----2-----0--0--------0-----0-----2-----0--0-----------------------0-----0-----11-|
D |----0-----2--4--------2-----0-----0-----2--4-----------------------9-----0-----12-|
A |----------3--5--------2-----2-----------3--5-----------------------10----9-----12-|
E |----------------------0-----3--------------------------------------0-----10----10-|

E |----8-----10----------0-----10----10----8-----10---------------------------------|
B |----8-----10----------8-----10----10----8-----10---------------------------------|
G |----9-----11----------0-----0-----11----9-----11---------------------------------|
D |----10----12----------9-----0-----12----10----12---------------------------------|
A |----10----12----------10----9-----12----10----12---------------------------------|
E |----8-----10----------0-----10----10----8-----10---------------------------------|
Tap to rate this tab
# A B C D E F G H I J K L M N O P Q R S T U V W X Y Z