Song name
# A B C D E F G H I J K L M N O P Q R S T U V W X Y Z

Misc Unsigned Bands - Digitaliiz - Explode tab

                                Explode                                     


                                                                      Digitaliiz




        NH         NH             NH         NH        
        H          H              H          H         
E||--<>12--------<>7--------|--<>12--------<>7--------|
B||-------------------------|-------------------------|
G||-------------------------|-------------------------|
D||-------------------------|-------------------------|
A||-------------------------|-------------------------|
E||-------------------------|-------------------------|


     NH         NH             NH      NH      NH      NH    
     H          H              Q       Q       Q       Q     
--<>12--------<>7--------|--<>12----<>12----<>12----<>12----|
-------------------------|----------------------------------|
-------------------------|----------------------------------|
-------------------------|----------------------------------|
-------------------------|----------------------------------|
-------------------------|----------------------------------|


  PM PM PM PM PM PM PM PM    PM PM PM PM PM PM PM PM  
  E  E  E  E  E  E  E  E     E  E  E  E  E  E  E  E   
--------------------------|--------------------------|
--------------------------|--------------------------|
--------------------------|--------------------------|
--------------------------|--------------------------|
--0--0--0--0--0--0--0--0--|--0--0--0--0--0--0--0--0--|
--0--0--0--0--0--0--0--0--|--0--0--0--0--0--0--0--0--|


  PM PM PM PM PM PM PM PM    PM PM PM PM PM PM PM PM  
  E  E  E  E  E  E  E  E     E  E  E  E  E  E  E  E   
--------------------------|--------------------------|
--------------------------|--------------------------|
--------------------------|--------------------------|
--------------------------|--------------------------|
--0--0--0--0--0--0--0--0--|--0--0--0--0--0--0--0--0--|
--0--0--0--0--0--0--0--0--|--0--0--0--0--0--0--0--0--|


       PM PM    PM PM PM PM       PM PM PM    PM        
    E  E  E  E  E  E  E  E     E  E  E  E  E  E  E  E   
|---------------------------|--------------------------|
|---------------------------|--------------------------|
|*--------------------------|--------------------------|
|*--9--9--9--9--9--9--2--2--|--2--0--0--0--2--0--2--2--|
|---7--7--7--7--7--7--2--2--|--2--0--0--0--2--0--2--2--|
|------0--0-----0--0--------|--------------------------|


             PM PM PM PM PM      PM PM PM PM PM PM PM PM  
  E   E   E  E  E  E  E  E       E  E  E  E  E  E  E  E   
-----------------------------||--------------------------|
-----------------------------||--------------------------|
----------------------------*||--------------------------|
--0h--2p--0-----------2--2--*||--------------------------|
--0---2---0--0--0--0--2--2---||--0--0--0--0--0--0--0--0--|
-------------0--0--0---------||--------------------------|


                             D  D    D  D  D    D     D  D    D  D  D  D       
  PM PM PM PM PM PM PM PM                                                      
  E  E  E  E  E  E  E  E     E  Q    E  E  Q    E     E  Q    E  E  E  S S E   
--------------------------|--2--2----x--2--2----2--|--2--x----2--x--2--x-x-0--|
--------------------------|--3--3----x--3--3----3--|--3--x----3--x--3--x-x-3--|
--------------------------|--2--2----x--2--2----2--|--2--x----2--x--2--x-x-2--|
--0--0--0--0--0--0--0--0--|--0--0----x--0--0----0--|--0--x----0--x--0------2--|
--------------------------|------------------------|--------------------------|
--------------------------|------------------------|--------------------------|


  D     D                  
  E  E  E  E  E  E  E  E   
--2-----2-----2-----2-----|
--3-----3-----3-----3-----|
--2-----2-----2-----2-----|
--0-----0-----0-----0-----|
--------------------------|
--------------------------|


      hit dead notes with edge of thumb                   
  E   E                                E  E  E  E  E  E   
--2------------------------------------2-----2-----2-----|
--3--(x)-------------------------------3-----3-----3-----|
--2------------------------------------2-----2-----2-----|
--0------------------------------------0-----0-----0-----|
---------------------------------------------------------|
---------------------------------------------------------|


  D     D                                               
  E  E  E  E  E  E  E  E     E   E   E  E  E  E  E  E   
--2-----2-----2-----2-----|--2-------2-----2-----2-----|
--3-----3-----3-----3-----|--3--(x)--3-----3-----3-----|
--2-----2-----2-----2-----|--2-------2-----2-----2-----|
--0-----0-----0-----0-----|--0-------0-----0-----0-----|
--------------------------|----------------------------|
--------------------------|----------------------------|


  A                                                   
  E  E  E  E  E  E  E  E     E  E  E  E  E  E  E  E   
--0-----0-----0-----0-----|--0-----0-----0-----0--0--|
--2-----2-----2-----2-----|--2-----2-----2-----2--2--|
--2-----2-----2-----2-----|--2-----2-----2-----2--2--|
--2-----2-----2-----2-----|--2-----2-----2-----2--2--|
--0-----0-----0-----0-----|--0-----0-----0-----0--0--|
--------------------------|--------------------------|


  E  E  E  E  E  E  E  E     E  E  E  E  E  E  E  E   
--------------------------|--------------------------|
--------------------------|--------------------------|
--------------------------|--------------------------|
--9-----9-----9-----9-----|--9-----9-----9-----9--9--|
--7-----7-----7-----7-----|--7-----7-----7-----7--7--|
--------------------------|--------------------------|


  E  E  E  E  E  E  E  E     E  E  E  E  E  E  E  E   
--------------------------|--------------------------|
--------------------------|--------------------------|
--------------------------|--------------------------|
--5-----5-----5-----5-----|--5-----5-----5-----5-----|
--3-----3-----3-----3-----|--3--3--3--3--3--3--3--3--|
--------------------------|--------------------------|


  E  E  E  E  E  E  E  E     E  E  E  E  E  E  E  E   
--------------------------|--------------------------|
--------------------------|--------------------------|
--------------------------|--------------------------|
--9-----9-----9-----9-----|--9-----9-----9-----9--9--|
--7-----7-----7-----7-----|--7-----7-----7-----7--7--|
--------------------------|--------------------------|


  E  E  E  E  E  E  E  E     E  E  E  E  E  E  E  E   
--------------------------|--------------------------|
--------------------------|--------------------------|
--------------------------|--------------------------|
--5-----5-----5-----5-----|--5-----5-----5-----5-----|
--3-----3-----3-----3-----|--3--3--3--3--3--3--3--3--|
--------------------------|--------------------------|


  E  E  E  E  E  E  E  E     E  E  E  E  E  E  E  E   
--------------------------|--------------------------|
--------------------------|--------------------------|
--------------------------|--------------------------|
--9-----9-----9-----9-----|--9-----9-----9-----9--9--|
--7-----7-----7-----7-----|--7-----7-----7-----7--7--|
--------------------------|--------------------------|


                                                  NH    NH    NH    NH  
  E  E  E  E  E  E  E  E     E  E  E  E  E  E     S     S     S     S   
--------------------------|--------------------<>(7)-<>(7)-<>(7)-<>(7)-|
--------------------------|--------------------------------------------|
--------------------------|--------------------------------------------|
--5-----5-----5-----5-----|--5-----5-----5-----------------------------|
--3-----3-----3-----3-----|--3--3--3--3--3--3--------------------------|
--------------------------|--------------------------------------------|


  E  E  E  E  E  E  E  E     E  E  E  E  E  E  E  E   
--------------------------|--------------------------|
--------------------------|--------------------------|
--------------------------|--------------------------|
--5-----5-----5-----5-----|--5-----5-----5-----5-----|
--3-----3-----3-----3-----|--3--3--3--3--3--3--3--3--|
--------------------------|--------------------------|


  E  E  E  E  E  E  E  E     E  E  E  E  E  E  E  E     W                 
--------------------------|--------------------------|-------------------|
--------------------------|--------------------------|-------------------|
--------------------------|--------------------------|--5----------------|
--7-----7-----7-----7-----|--7-----7-----7-----7-----|--5----------------|
--5-----5-----5-----5-----|--5--5--5--5--5--5--5--5--|--3----------------|
--------------------------|--------------------------|-------------------|


    W                    W                   W                  
--5g5~----------------|--L----------------|--L----------------||
----6~----------------|--L----------------|--L----------------||
----7~----------------|--L----------------|--L----------------||
----7~----------------|--L----------------|--L----------------||
----5~----------------|--L----------------|--L----------------||
----5~----------------|--L----------------|--L----------------||




Duration Legend
---------------
W - whole
H - half
Q - quarter
E - 8th
S - 16th
T - 32nd
X - 64th
. - note dotted
|-n-|  - n-tuplets


Tablature Legend
----------------
L - tied note
x - dead note
g - grace note
(n) - ghost note
> - accentuded note
NH - natural harmonic
AH - artificial harmonic
TH - tapped harmonic
SH - semi harmonic
PH - pitch harmonic
h - hammer on
p - pull off
b - bend
br - bendRelease
pb - preBend
pbr - preBendRelease
brb - bendReleaseBend
\n/ - tremolo bar dip
\n - tremolo bar dive
-/n - tremolo bar Release up
/n\ - tremolo bar inverted dip
/n - tremolo bar return
-\n - tremolo bar Release down
S - shift slide
s - legato slide
/ -  slide into from below or out of upwards
\ -  slide into from above or out of downwards
~ - vibrato
W - wide vibrato
tr - trill
TP - tremolo picking
T - tapping
S - slap
P - pop
< - fade in
^ - brush up
v - brush down
Tap to rate this tab
# A B C D E F G H I J K L M N O P Q R S T U V W X Y Z