Song name
# A B C D E F G H I J K L M N O P Q R S T U V W X Y Z

Misc Unsigned Bands - James Hobbs - Nevermind Acoustic tab

Nevermind

Intro...
|-------------------------------|
|-------------------------------|
|-------4-------------2---------|
|---4/5---5-4h5p4---4---4-------|
|-2---------------5-------4h5p4-|
|-------------------------------|

Riff 1(part 1)
|-------------------------|
|-------------------------|
|-----0-0-0-0-0-0---------|
|-4-4-5-5-5-5-7-7-2-2-2-2-|
|-2-2-3-3-3-3-5-5-0-0-0-0-|
|-------------------------|

Riff 1(part 2)
|-------------------------|
|-------------------------|
|-3-3-4-4-4-4-7-7---------|
|-x-x-x-x-x-x-x-x-7-7-7-7-|
|-2-2-3-3-3-3-5-5-x-x-x-x-|
|-----------------5-5-5-5-|

Riff 2
|--------------------------------------|
|--------------------------------------|
|-------4-----------------4------------|
|---4/5---5-7p5-------4/5---5-7p5-5-2b-|
|-2-------------5-3-2------------------|
|--------------------------------------|

Chorus...
|-------------|
|-3-3-0-0-0-0-|
|-0-0-2-2-2-2-|
|-2-2-2-2-2-2-|
|-3-3-0-0-0-0-|
|-------------|

  / - Slide
  b - Bend
  h - Hammer on
  p - Pull off
Tap to rate this tab
# A B C D E F G H I J K L M N O P Q R S T U V W X Y Z