Guitaretab - guitar tabs
Song name
# A B C D E F G H I J K L M N O P Q R S T U V W X Y Z

Misc Unsigned Bands - Never Let Go - Fear Of The Dark tab

-------------------------------------------------------------------------------
                          Fear of the Dark  Never Let Go
-------------------------------------------------------------------------------
Tabbed by: Dill pill
Email:N3v3rl3tgo13@gmail.com
[ Tab from: http://www.guitaretab.com/m/misc-unsigned-bands/118124.html ]
Tuning: dbgdae
Guitar 2
e|---------------------------------------------------------------------------|
B|---------------------------------------------------------------------------|
G|---------------------------------------------------------------------------|
D|---------------------------------------------------------------------------|
A|--{0-0-1-2}----0-0-3-2----------------------0-0-1-2-1----------------------|
D|--{0-0-1-2}x3--0-0-3-2----------------------0-0-1-2-1----------------------|
  Guitar 1 (intro)       Repeat 3 times then:
e|---------------------------------------------------------------------------|
B|---------------------------------------------------------------------------|
G|---------------------------------------------------------------------------|
D|---------------------------------------------------------------------------|
A|----5*x8-----second time only----------------------------------------------|
E|---------------------------------------------------------------------------|
  Guitar 1 (intro 2)
e|---------------------------------------------------------------------------|
B|---------------------------------------------------------------------------|
G|---------------------------------------------------------------------------|
D|--------------------------------------------5^-----------------------------|
A|--------8p7-----5h7----8p7-----8h10-----x4---------------------------------|
E|----0-0-----0-0-----0-0----0-0---------------------------------------------|
  Guitar 2
e|----------------------------------------------------------------------------|
B|----------------------------------------------------------------------------|
G|----------------------------------------------------------------------------|
D|----------------------------------------------------------------------------|
A|----888-10,10,10-777-888-555-777-333-555---x4-----10^-----------------------|
E|----------------------------------------------------------------------------|
  Guitar 1 (verse)
e|----------------------------------------------------------------------------|
B|----------------------------------------------------------------------------|
G|----------------------------------------------------------------------------|
D|--------8-----7-----5-----7-----8/10---------8-----7-----5-----3------------|x2
A|--------6-----5-----3-----5-----6/8----------6-----5-----3-----1------------|
E|----0-0---0-0---0-0---0-0---0-0------x3--0-0---0-0---0-0---0-0--------------|
  Guitar 2
e|----------------------------------------------------------------------------|
B|----------------------------------------------------------------------------|
G|----------------------------------------------------------------------------|
D|----------------------------------------------------------------------------|
A|----888-777-555-777-8/10x3----888-777-555-3333-----------------------------|
E|----------------------------------------------------------------------------|
  Guitar 2 (Chorus)
e|----------------------------------------------------------------------------|
B|----------------------------------------------------------------------------|
G|----------------------------------------------------------------------------|
D|-5-5-5-5-5-5-5---3-3-3-3---1-1-1-1---5-5-5-5-5-5-5---8-8-8-8---7-7-7-7x3----|
A|-5-5-5-5-5-5-5---3-3-3-3---1-1-1-1---5-5-5-5-5-5-5---8-8-8-8---7-7-7-7-5-4-5|
E|-5-5-5-5-5-5-5---3-3-3-3---1-1-1-1---5-5-5-5-5-5-5---8-8-8-8---7-7-7-7-5-4-5|
Repeat Verse
Chorus
Solo
e|-14-------------------------------------------------------------------------|
B|-16^^^^^---------------------------------------------------------13-14-16---|
G|-----------------------------------------------11 13 14-13-14-16------------|
D|-----------------------------10-11-13-11-13-14------------------------------|
A|------------8-10-11-10-11-13------------------------------------------------|
E|----------------------------------------------------------------------------|

e|-----------14-16-17-14-16-17-16-17-16-14-16-17-16-17-16-14-----------------|
B|--14-16-17-----------------------------------------------------------------|
G|---------------------------------------------------------------------------|
D|---------------------------------------------------------------------------|
A|---------------------------------------------------------------------------|
E|---------------------------------------------------------------------------|

e|-14-16-17-16-17-19-17-16-17-16-14----------14-17p14----------14-17p14------|
B|----------------------------------15----15----------15----15----------15---|
G|-------------------------------------14----------------14----------------14|
D|---------------------------------------------------------------------------|
A|---------------------------------------------------------------------------|
E|---------------------------------------------------------------------------|
     t             t            t            t        Really fast tapping 64th notes
e|--17-14-16-x3---19-14-16-x3---21-14-16-x6--21------------------------------|
B|---------------------------------------------------------------------------|
G|---------------------------------------------------------------------------|
D|---------------------------------------------------------------------------|
A|---------------------------------------------------------------------------|
E|---------------------------------------------------------------------------|
 Verse
 Chorus
Guitar 1(Outro)
e|---------------------------------------------------------------------------|
B|---------------------------------------------------------------------------|
G|---------------------------------------------------------------------------|
D|-----8-5-7-5----8-5-7-5-3---------------0----------------------------------|
A|-----6-3-5-3-x4-6-3-5-3-1------5*-------0----------------------------------|
E|-----------------------------------3*---0----------------------------------|


| /  slide up
| \  slide down
| h  hammer-on
| p  pull-off
| ~  vibrato
| *  harmonic
| x  Mute note
=============================================================================
Related for Never Let Go - Fear Of The Dark tab