Song name
# A B C D E F G H I J K L M N O P Q R S T U V W X Y Z

Misc Unsigned Bands - Kamikaze Shank Attack - Automatic Shank tab

Help us improve GuitareTab! Take a short survey!
Riff    --- METAL STYLE

E|----------------------------------|
B|----------------------------------|
G|----------------------------------|
D|----------------------------------|
A|---------------2p0----------------|
E|-0-0-0-0-3p0-0-----0-3p0-0-0-1----|
Pm . . . .     .     .     . .

   E E E E S S E S S E S S E E Q




E|----------------------------------|
B|----------------------------------|
G|----------------------------------|
D|----------------------------------|
A|---------------2p0-----------1----|
E|-0-0-0-0-3p0-0-----0-3p0-0-0------|
Pm . . . .     .     .     . .

   E E E E S S E S S E S S E E Q

Btw

E = QUAVER
Q = CROTCHET
S = SEMIQUAVER

Related for Kamikaze Shank Attack - Automatic Shank tab