Song name
# A B C D E F G H I J K L M N O P Q R S T U V W X Y Z

Misc Unsigned Bands - So Original - On The Way tab

----------------------------------------------------------------------------
			     ON THE WAY - SO ORIGINAL 
----------------------------------------------------------------------------
Tabbed by:DanBourne
Email:dan_rulz_u_2@hotmail.com

FF= (Play very fast)
NN= (Play Normaly)
Tuning:Drop D
                             FF
e|-------------------------------------------------------------------------|
B|-------------------------------------------------------------------------|
G|-------------------------------------------------------------------------|
d|-------------------------------------------------------------------------|
A|-0300300300300300-6--5--0--300300300300-6--5--0700700700700-10--9--0-----|
D|-0300300300300300-6--5--0--300300300300-6--5--0700700700700-10--9--0-----|
                                
                             FF
e|-------------------------------------------------------------------------|
B|-------------------------------------------------------------------------|
G|-------------------------------------------------------------------------|
d|-------------------------------------------------------------------------|
A|-700700700700-10--9--0--500500500500-8--7--0--500500500500-8--7--0-------|
D|-700700700700-10--9--0--500500500500-8--7--0--500500500500-8--7--0-------|

                             FF
e|-------------------------------------------------------------------------|
B|-------------------------------------------------------------------------|
G|-------------------------------------------------------------------------|
D|-------------------------------------------------------------------------|
A|-100100100100-4--3--0--100100100100-4--3--0------------------------------|
E|-100100100100-4--3--0--100100100100-4--3--0------------------------------|
                                 NN
e|-------------------------------9--12-------------------------------------|
B|------------------------9--12--------------------------------------------|
G|---------------9-11-12---------------------------------------------------|
d|----------9-11-----------------------------------------------------------|
A|--9-10-11----------------------------------------------------------------|
D|-------------------------------------------------------------------------|
                                 P+~ |------|   
                                  NN
e|-------------------------------------------------------------------------|
B|-------------------------------------------------------------------------|
G|-------------------------------------------------------------------------|
d|-------------------------------------------------------------------------|
A|-------------------------------------------------------------------------|
D|-0--1-/--12----0--1-/--13----0--1-/--14----0--1-/--13----0--1-/--12------|
  h   .             .             .             .             . 
                                  NN
e|-------------------------------------------------------------------------|
B|-------------------------------------------------------------------------|
G|-------------------------------------------------------------------------|
d|-------------------------------------------------------------------------|
A|-------------------------------------------------------------------------|
D|-0--1-/--12----0--1-/--13----0--1-/--14----0--1-/--13----0--1-/--12------|
  h   .             .             .             .             .
                                  FF
e|-------------------------------------------------------------------------|
B|-------------------------------------------------------------------------|
G|-------------------------------------------------------------------------|
d|-011011011011--3--4--011011011011--3--4--011011011011--4--3--------------|
A|-011011011011--3--4--011011011011--3--4--011011011011--4--3--------------|
D|-011011011011--3--4--011011011011--3--4--011011011011--4--3--------------|
 +  .. .. .. ..         .. .. .. ..         .. .. .. ..
                                  FF
e|-------------------------------------------------------------------------|
B|-------------------------------------------------------------------------|
G|-------------------------------------------------------------------------|
d|-033033033033--5--6--033033033033--5--6--033033033033--6--5--------------|
A|-033033033033--5--6--033033033033--5--6--033033033033--6--5--------------|
D|-033033033033--5--6--033033033033--5--6--033033033033--6--5--------------|
 +  .. .. .. ..         .. .. .. ..         .. .. .. ..
                                 FF
e|-------------------------------------------------------------------------|
B|-------------------------------------------------------------------------|
G|-------------------------------------------------------------------------|
d|-055055055055--7--8--055055055055--7--8--055055055055--8--7--------------|
A|-055055055055--7--8--055055055055--7--8--055055055055--8--7--------------|
D|-055055055055--7--8--055055055055--7--8--055055055055--8--7--------------|
 +  .. .. .. ..         .. .. .. ..         .. .. .. ..
                                 NN
e|--12--9------------------------------------------------------------------|
B|--------12--9------------------------------------------------------------|
G|--------------12--11--9--------------------------------------------------|
d|------------------------11--9--------------------------------------------|
A|------------------------------11--10--9----------------------------------|
D|-------------------------------------------------------------------------|
                                     P+~|----|
| /  slide up
| \  slide down
| h  hammer-on
| p  pull-off
| ~  vibrato
| +  harmonic
| x  Mute note
| P+~ PINCH HARMONIC VIBRATO
============================================================================
Tabbed by Daniel/DanBourne. Visit my profile rate my tabs

and if u have any questions or suggestions please email me at
dan_rulz_u_2@hotmail.com
thanks
Tap to rate this tab
# A B C D E F G H I J K L M N O P Q R S T U V W X Y Z