Song name
# A B C D E F G H I J K L M N O P Q R S T U V W X Y Z

Misc Unsigned Bands - Broken Feathers - Small Ville Blues tab

-------------------------------------------------------------------------------
			     SONG NAME - Band Name
-------------------------------------------------------------------------------
Tabbed by:Alexander duke (broken feathers)
Email:american_idiot_71@yahoo.com

Tuning:1/2 step down/   G2 1/2 drop D

(GUITAR 1) INTRO
e|---12-12-9-9----------------------------------------------------------|
B|-------------12-12-9-9------------------------------------------------|
G|-----------------------11-11-9-9--------------------------------------|
D|---------------------------------11-9-8-------------------------------|
A|----------------------------------------11-9-8------9-9h11p7~~~7-7----|
E|-----------------------------------------------9-12----------------7--|

e|---------------------------------------------------------|
B|---------------------------------------------------------|
G|---------------------------------------------------------|
D|---------------------------------------------------------|
A|---------------------------------------------------------|
E|-0-0x0-0-0x0-0-0x0-0-0-7~~~~0-0x0-0-0x0-0-0x0-0-0-7h9-5--|

(GUITAR 2)DROP D
e|-----------------------------------|
B|-----------------------------------|
G|-----------------------------------|
D|-0-0--x0-0-0x0-0-0x0-0-0-5/s.7s.3--|
A|-0-0--x0-0-0x0-0-0x0-0-0-5/s.7s.3--|
E|-0-0--x0-0-0x0-0-0x0-0-0-5/s.7s.3--|
laying in the dirt kicking some ass

| /  slide up
| \  slide down
| h  hammer-on
| p  pull-off
| ~  vibrato
| +  harmonic
| x  Mute note
===============================================================================
Tap to rate this tab
# A B C D E F G H I J K L M N O P Q R S T U V W X Y Z