Song name
# A B C D E F G H I J K L M N O P Q R S T U V W X Y Z

Misc Unsigned Bands - So Original - My Randomism tab

----------------------------------------------------------------------------
	   MY RANDOMISM - SO ORIGINAL!
----------------------------------------------------------------------------
Tabbed by:Daniel (DanBourne)
Email:dan_rulz_u_2@hotmail.com

Tuning:Drop D (heavy distortion, gain maxed)
  
e|--12-15-12-14-12-13-12-12-15-12-14-12-13-12-12--|
B|--12-15-12-14-12-13-12-12-15-12-14-12-13-12-12--|
G|------------------------------------------------|X2
d|------------------------------------------------|
A|------------------------------------------------|
D|------------------------------------------------|
                             
e|-------------------------------------------------------------------------|
B|-------------------------------------------------------------------------|
G|-------------------------------------------------------------------------|
d|-------------------------------------------------------------------------|
A|-065035---0650-------065035-3-0-------XXXX5----XXXX3----XXXX53--3--------|
D|-065035---06503------065035-3-0-------XXXX5----XXXX3----XXXX53--3--------|
             p+~|---|
e|-------------------------------------------------------------------------|
B|-------------------------------------------------------------------------|
G|-------------------------------------------------------------------------|
d|-------------------------------------------------------------------------|
A|-065035---0650-------065035-3-0-------XXXX5----XXXX3----XXXX53--3--------|
D|-065035---06503------065035-3-0-------XXXX5----XXXX3----XXXX53--3--------|
             p+~|---|


sorry its so short i can add more later and will
Dan

| /  slide up
| \  slide down
| h  hammer-on
| p  pull-off
| ~  vibrato
| +  harmonic
| x  Mute note
| P+~ Pinch Harmonic vibrato
============================================================================
Tap to rate this tab
# A B C D E F G H I J K L M N O P Q R S T U V W X Y Z