Song name
# A B C D E F G H I J K L M N O P Q R S T U V W X Y Z

Misc Unsigned Bands - The Casual Friday Experience - Writers Block tab

-------------------------------------------------------------------------------
		Writer's Block - The Casual Friday Experience
-------------------------------------------------------------------------------
Tabbed by: dstokes
Email: casualfridayband@hotmail.com

Tuning: normal

verse:
e|---------------------------------------------------------------------------|
B|---------------------------------------------------------------------------|
G|---------------------------------------------------------------------------|
D|---------------2---3-------------------------------------------------------|
A|-----2---3-3-3---1---------------------------------------------------------|
E|-3-3---1-------------------------------------------------------------------|

chorus: play 3 times
e|---------------------------------------------------------------------------|
B|---------------------------------------------------------------------------|
G|---------------------------------------------------------------------------|
D|---------------------------------------------------------------------------|
A|-5-5-3-3-10-10-8-8---------------------------------------------------------|
E|-3-3-1-1-8--8--6-6---------------------------------------------------------|

fourth time play:
e|---------------------------------------------------------------------------|
B|---------------------------------------------------------------------------|
G|---------------------------------------------------------------------------|
D|---------------------------------------------------------------------------|
A|-3-3-3-3-10-10-8-8-8-8-8-8-8-7-7-7-7-6-6-6-6-------------------------------|
E|-5-5-1-1-8--8--6-6-6-6-6-6-6-5-5-5-5-4-4-4-4-------------------------------|

solo:
e|---------------------------------------------------------------------------|
B|---------------------------------------------------------------------------|
G|-------15-------15-17^-17-17-17p15-----------------------------------------|
D|-15h17----15h17--------------------17--------------------------------------|
A|---------------------------------------------------------------------------|
E|---------------------------------------------------------------------------|

e|-----------------------------------------15-15-----------------------------|
B|-----------------------------------15-18-----------------------------------|
G|-------15--------15-17-19-17-15-17-----------------------------------------|
D|-15h17----15h17------------------------------------------------------------|
A|---------------------------------------------------------------------------|
E|---------------------------------------------------------------------------|

e|-18p15----18p15----18p15----18p15----18p15----18p15------------------------|
B|-------18-------18-------18-------18-------18-------18---------------------|
G|---------------------------------------------------------------------------|
D|---------------------------------------------------------------------------|
A|---------------------------------------------------------------------------|
E|---------------------------------------------------------------------------|

picked fast:
e|-20-20-20-20-20-18-18-18-18-15-15------------------------------------------|
B|----------------------------------18-15-18/20------------------------------|
G|---------------------------------------------------------------------------|
D|---------------------------------------------------------------------------|
A|---------------------------------------------------------------------------|
E|---------------------------------------------------------------------------|


| /  slide up
| \  slide down
| h  hammer-on
| p  pull-off
| ~  vibrato
| +  harmonic
| x  Mute note
===============================================================================
Tap to rate this tab
# A B C D E F G H I J K L M N O P Q R S T U V W X Y Z