Guitaretab - guitar tabs
Song name
# A B C D E F G H I J K L M N O P Q R S T U V W X Y Z

Misc Unsigned Bands - Theset - Little One tab

Theset  Little One

Tuning: Standard
Listen to rhythm of song for exact timing

Intro/Verse: Repeat as needed
Guitar 1
E    |-----------------------------------------------------------|
B     |----------------------------------------------------------|
G    |----------7--------------7--------------7-------------7----|
D    |------9------9-------9------9------9------9------9------9--|
A    |--10------------10-------------9--------------9------------|
E    |-----------------------------------------------------------|


Chorus: X2
Guitar 1
E	|--------------------------------------------------------------------------------------|
B	|--------------------------------------------------------------------------------------|
G	|----------7-------------7--------------7-------------7--------------------------------|
D	|------9------9------9------9------9------9------9------9------------------------------|
A	|---7-------------7--------------------------------------------------------------------|
E	|--------------------------------8--------------8--------------------------------------|

Intro\verse
Chorus

Bridge X2
Guitar 2 (over guitar 1 intro/verse)
E    |------------------------------------------------|
B    |------------------------------------------------|
G    |-------19---------------------------------------|
D    |--17-------16~~----17--19--2121~~--21--19--17--|
A    |------------------------------------------------|
E    |------------------------------------------------|

Intro/verse
Chorus Guitar 1

Chorus Guitar 2 X2
E	|----------------------------------------------------------------------------------------|
B	|----------------------------------------------------------------------------------------|
G	|----------7------7-------------7------7-------------7------7------------7------7--------|
D	|------9------9------9------9------9------9------9------9-----9-----9------9-----9-------|
A	|--7---------------------7---------------------------------------------------------------|
E	|-----------------------------------------------8--------------------8-------------------|


Bridge pt 1 = Intro Verse (guitar 1)
[ Tab from: http://www.guitaretab.com/m/misc-unsigned-bands/118349.html ]
Bridge Pt 2 (distorted) (guitar 1)
E	|--------------------------------------------------------------------------------------|
B	|--------------------------------------------------------------------------------------|
G	|---------5~~------------5~~-----------------------------------------------------------|
D	|--2~~----5~~-----2~~----5~~-----------------------------------------------------------|
A	|--2~~----3~~-----2~~----3~~-----------------------------------------------------------|
E	|--0~~----3~~-----0~~----3~~-----------------------------------------------------------|

Bridge pt 3 (guitar 1) listen for strumming pattern (repeat as needed)
E	|--------------------------------------------------------------------------------------|
B	|--------------------------------------------------------------------------------------|
G	|---------5~~-----5~~------------------------------------------------------------------|
D	|--5~~----5~~-----5~~----5~~-----------------------------------------------------------|
A	|--5~~----3~~-----5~~----3~~-----------------------------------------------------------|
E	|--3~~----3~~-----3~~----3~~-----------------------------------------------------------|


Bridge 	Pt 3 (guitar 2) X3
E	|--------------------------------------------------------------------------------------|
B	|------------------20------------20------------20--------------------------------------|
G	|--------19------------19------------19------------19-------19-------------------------|
D	|---17-------17------------17------------17------------17------17----------------------|
A	|--------------------------------------------------------------------------------------|
E	|--------------------------------------------------------------------------------------|

E	|--------------------------------------------------------------------------------------|
B	|------------------19------------19------------19--------------------------------------|
G	|--------19------------19------------19------------19-------19-------------------------|
D	|---16-------16------------16------------16------------16------16----------------------|
A	|--------------------------------------------------------------------------------------|
E	|--------------------------------------------------------------------------------------|

E    |------------------------------------------------|
B    |------------------------------------------------|
G    |-------19---------------------------------------|
D    |--17-------16~~----17--19--2121~~--21--19--17--|
A    |------------------------------------------------|
E    |------------------------------------------------|
X3


E    |------------------------------------------------|
B    |------------------------------------------------|
G    |-------19---------------------------------------|
D    |--17-------16~~----16--14--1912~~--21--19--17--|
A    |------------------------------------------------|
E    |------------------------------------------------|
Related for Theset - Little One tab