Song name
# A B C D E F G H I J K L M N O P Q R S T U V W X Y Z

Misc Unsigned Bands - Ron Vandermolen - The Star Spangled Banner tab

Help us improve GuitareTab! Take a short survey!
Ron’s Version of “The Star Spangled Banner”




|--0-------0-5~~---9-7-5------------|-9--7-5-4~-2-4-5-5----------------------|
|----2---2---5~~---------2-4-5~~-5--|--------4~-----5-5-5-2-2~~--------------|
|------2---------------------5~~----|-----------------------2~~--------------|
|-----------------------------------|----------------------------------------|
|-----------------------------------|----------------------------------------|
|-----------------------------------|----------------------------------------|

|--0-------0-5~~---9-7-5------------|-9--7-5-4~-2-4-5-5----------------------|
|----2---2---5~~---------2-4-5~~-5--|--------4~---------5-2------------------|
|------2---------------------5~~----|-----------------------2~~--------------|
|-----------------------------------|-----------------------2~~--------------|
|-----------------------------------|----------------------------------------|
|-----------------------------------|----------------------------------------|

           
|-9-9-9-10-12-12~~--10-9-7-9-10-10~~|---9-7-5-4-2-2-4-5----------------------|
|-------------12~~--------------10~~|-------------------5-2------------------|
|-----------------------------------|-----------------------2~~--------------|
|-----------------------------------|-----------------------2~~--------------|
|-----------------------------------|----------------------------------------|
|-----------------------------------|----------------------------------------|
  
|--5-5-5p4-2-2-2-2/7-7-7-9-7-5h7p5-4~|-0-0-5~~-7-9-10-12~-5-7-9~~-10-7~~-5~~~~|
|5---------------------------------4~|-----5~~--------12~-----9~~----7~~-5~~~~|
|------------------------------------|----------------------------------------|
|------------------------------------|----------------------------------------|
|------------------------------------|----------------------------------------|
|------------------------------------|----------------------------------------|
Related for Ron Vandermolen - The Star Spangled Banner tab