Song name
# A B C D E F G H I J K L M N O P Q R S T U V W X Y Z

Misc Unsigned Bands - Joint - Mami Kawada tab

Help us improve GuitareTab! Take a short survey!
joint tabs

dropped D
INTRO                     
e|-----------------------|
B|-----------------------|        repeat 3x
G|-----------------------|
D|-----------------------|
A|------------5b---------|
E|-0-2h3-5h3----5-7-8-7-5|

then

e|--------------------------|
B|--------------------------|        
G|--------------------------|
D|------------5-5--7-7------|
A|------------5-5--7-7------|
E|-0-2h3-5h3--5-5--7-7------|

then

e|--------------------------------|
B|--------------------------------|        
G|--------------------------------|
D|-2-2---5-5---12-12---7-7--------|
A|-2-2---5-5---12-12---7-7--------|
E|-2-2---5-5---12-12---7-7--------|

e|----------------------------------------|
B|----------------------------------------|        
G|----------------------------------------|
D|-2-2---5-5---10-10-10--12-12-12-12------|
A|-2-2---5-5---10-10-10--12-12-12-12------|
E|-2-2---5-5---10-10-10--12-12-12-12------|

lead

e|------------------------------------------------|
B|-5-5-5-5-5-5-5-5-5-5-5-5--8-8-7-7---------------|        
G|------------------------------------------------|
D|------------------------------------------------|
A|------------------------------------------------|
E|------------------------------------------------|

e|------------------------------------------------|
B|-5-5-5-5-5-5-5-5-5-5-5-5--10-10-8-8-------------|        
G|------------------------------------------------|
D|------------------------------------------------|
A|------------------------------------------------|
E|------------------------------------------------|
repeat

VERSE
* let ring

e|--------------------------------|
B|--------------------------------|        
G|--------------------------------|
D|-2*----5*----10*-0--------------|
A|-2*----5*----10*-0--------------|
E|-2*----5*----10*-0--------------|


lead (played when the other guitarist hits 10) 

e|--7-----------------------------|
B|----5---------------------------|        
G|------5-------------------------|
D|--------------------------------|
A|--------------------------------|
E|--------------------------------|


e|--------------------------------|
B|--------------------------------|        
G|--------------------------------|
D|-2*----5*----10*-12...----------|
A|-2*----5*----10*-12...----------|
E|-2*----5*----10*-12...----------|

... means strum multiple times.

PRE CHORUS

e|------------------------------------------|
B|------------------------------------------|        
G|------------------------------------------|
D|-2-2---8-7-5----2-2---8-7-5---------------|
A|-2-2---8-7-5----2-2---8-7-5---------------|
E|-2-2---8-7-5----2-2---8-7-5---------------|

e|-----------------------------------------------|
B|-----------------------------------------------|        
G|-----------------------------------------------|
D|-2-2---8-7-5----2222-5555-10101010-------------|
A|-2-2---8-7-5----2222-5555-10101010-------------|
E|-2-2---8-7-5----2222-5555-10101010-------------|

CHorus... im not really sure. but i think it is correct.

(play chorus 2 times)

e|--------------------------------|
B|--------------------------------|        
G|--------------------------------|
D|-2----10-5-12-------------|
A|-2----10-5-12-------------| each note is played 7 times.
E|-2----10-5-12-------------|


e|--------------------------------|
B|--------------------------------|        
G|--------------------------------|
D|-2----10-5-7--------------|
A|-2----10-5-7--------------| each note is played 7 times.
E|-2----10-5-7--------------|

then

e|----------------------|
B|----------------------|        
G|----------------------|
D|-22-22-22-------------|   
A|-22-22-22-------------|
E|-22-22-22-------------|

e|---------------------------------|
B|---------------------------------|        
G|---------------------------------|
D|-22----555----77-8888------------|   
A|-22----555----77-8888------------|
E|-22----555----77-8888------------|

e|---------------------------------|
B|---------------------------------|        
G|---------------------------------|
D|-22----555--2222-------------------|   
A|-22----555--2222-------------------|
E|-22----555--2222-------------------|

Verse 2

e|----------------------------|
B|----------------------------|        
G|----------------------------|
D|-2---5----10-0--------------|   each note is strummed 12 times.
A|-2---5----10-0--------------|
E|-2---5----10-0--------------|

the ones before the @ are palm muted
e|-------------------------------------------|
B|-------------------------------------------| each group of chords         
G|-------------------------------------------| except the 12, is played
D|-22@2---55@5----1010@10--12...-------------| 4 times.  
A|-22@2---55@5----1010@10--12...-------------| 
E|-22@2---55@5----1010@10--12...-------------|

then 


PRE CHORUS

e|------------------------------------------|
B|------------------------------------------|        
G|------------------------------------------|
D|-2-2---8-7-5----2-2---8-7-5---------------|
A|-2-2---8-7-5----2-2---8-7-5---------------|
E|-2-2---8-7-5----2-2---8-7-5---------------|

e|-----------------------------------------------|
B|-----------------------------------------------|        
G|-----------------------------------------------|
D|-2-2---8-7-5----2222-5555-10101010-------------|
A|-2-2---8-7-5----2222-5555-10101010-------------|
E|-2-2---8-7-5----2222-5555-10101010-------------|

2x

CHorus

(play chorus 2 times)

e|--------------------------------|
B|--------------------------------|        
G|--------------------------------|
D|-2----10-5-12-------------|
A|-2----10-5-12-------------| each note is played 7 times
E|-2----10-5-12-------------|


e|--------------------------------|
B|--------------------------------|        
G|--------------------------------|
D|-2----10-5-7--------------|
A|-2----10-5-7--------------| each note is played 7 times
E|-2----10-5-7--------------|

then 

* means let ring
e|--------------------------|
B|--------------------------|        
G|--------------------------|
D|-3*-----------------|
A|-3*-----------------| 
E|-3*-----------------|

e|--------------------------|
B|--------------------------|        
G|--------------------------|
D|-22-22-22-22-7-3------------|
A|-22-22-22-22-7-3------------| 
E|-22-22-22-22-7-3------------|

e|--------------------------|
B|--------------------------|        
G|--------------------------|
D|-22-22-22-22-00-------------|
A|-22-22-22-22-00-------------| 
E|-22-22-22-22-00-------------|

e|--------------------------|
B|--------------------------|        
G|--------------------------|
D|-22-22-22-22-7-3------------|
A|-22-22-22-22-7-3------------| 
E|-22-22-22-22-7-3------------|

e|--------------------------|
B|--------------------------|        
G|--------------------------|
D|-22-22-22-22-00-------------|
A|-22-22-22-22-00-------------| 
E|-22-22-22-22-00-------------|

not yet finished. sorry. but i got to this part though!
Related for Joint - Mami Kawada tab