Guitaretab - guitar tabs
Song name
# A B C D E F G H I J K L M N O P Q R S T U V W X Y Z

Misc Unsigned Bands - Ef-el - Die Beter Boodskap tab

eF-eL  Die Beter Boodskap:

Intro:
Clean:
E|---------------------------|
B|---------------------------|
G|---------------------------|
D|---9---9-----7---7-----5---|   x2
A|-7---7---5-5---5---5-3---7-|
E|---------------------------|

E|-----------------------|
B|-----------------------|
G|-----------------------|
D|---9---9-----7---7-----|
A|-7---7---5-5---5---5-7-|
E|-----------------------|

W/Distortion:
E|-----------------------------------------------------------------|
B|-----------------------------------------------------------------|
G|-9-9-9-9-9-9-9-9-7-7-7-7-7-7-7-7-5-5-5-5-5-5-5-5-5-5-5-5-5-5-5-5-|
D|-----------------------------------------------------------------|
A|-----------------------------------------------------------------|
E|-----------------------------------------------------------------|
   * * * * * * * * * * * * * * * * * * * * * * * * * * * * * * * *

Riff 1:
E|-----------------------------------------------|
B|-----------------------------------------------|
G|-----------------------------------------------|
D|-9-9-9-9-9-12-11-7-7-7-7-9-9-9-9-9-7-7-7-7-7-7-|   x2
A|-7-7-7-7-7-10--9-5-5-5-5-7-7-7-7-7-5-5-5-5-5-5-|
E|-----------------------------------------------|

Verse 1:
E|-------------------------------------------------------|
B|-------------------------------------------------------|
G|-9-------------7-------------5-------------------------|
D|-9-9-9-9-9-9-9-7-7-7-7-7-7-7-5-5-5-5-5-5-5-5-----5-----|
A|-7-7-7-7-7-7-7-5-5-5-5-5-5-5-3-3-3-3-3-3-3-5-5-5-5-5-5-|
E|-------------------------------------------3-3-3-2-2-2-|
     * * * * * *   * * * * * *   * * * * * *   * *   * *

E|-----------------------------------------------------------|
B|-----------------------------------------------------------|
G|-9-------------7-------------5-----------------------------|
D|-9-9-9-9-9-9-9-7-7-7-7-7-7-7-5-5-5-5-5-5-5-5-5-5-5-5-5-5-5-|
A|-7-7-7-7-7-7-7-5-5-5-5-5-5-5-3-3-3-3-3-3-3-5-5-5-5-5-5-5-5-|
E|-------------------------------------------3-3-3-3-3-3-3-3-|
     * * * * * *   * * * * * *   * * * * * *

E|-----------------------------------------------|
B|-----------------------------------------------|
G|-9-----9-9-7-----7-7-5-----5-5-----------------|
D|-9-9-9-9-9-7-7-7-7-7-5-5-5-5-5-5-5-5-5-5-5-5-5-|
A|-7-7-7-7-7-5-5-5-5-5-3-3-3-3-3-5-5-5-5-5-5-5-5-|
E|-------------------------------3-3-3-3-3-3-3-3-|
     * *       * *       * *

E|---------------------------------------------------------|
B|---------------------------------------------------------|
G|-9-9-9-9-9-9-9-9-7-7-7-7-7-7-7-7-5-------x x x x x x x x-|
D|-9-9-9-9-9-9-9-9-7-7-7-7-7-7-7-7-5-------x x x x x x x x-|
A|-7-7-7-7-7-7-7-7-5-5-5-5-5-5-5-5-3-------x x x x x x x x-|
E|---------------------------------------------------------|

E|-------------------------------------------|
B|-------------------------------------------|
G|-9-9-9-9-9-9-9-9-7-7-7-7-7-7-7-7-5-5-5-5-5-|
D|-9-9-9-9-9-9-9-9-7-7-7-7-7-7-7-7-5-5-5-5-5-|
A|-7-7-7-7-7-7-7-7-5-5-5-5-5-5-5-5-3-3-3-3-3-|
E|-------------------------------------------|

Riff 2:
E|--------------------------------------------------------|
B|--------------------------------------------------------|
G|-x x x x-9-9-9-11-11-11-12-12-12-12-7/9-9-9-7-7-7-7-7-7-|
D|-x x x x- x x x x x x x x x x x x x x x x x x x x x x x-
A|-x x x x-7-7-7--9--9--9-10-10-10-10-5/7-7-7-5-5-5-5-5-5-|
E|--------------------------------------------------------|

E|----------------------------------------------|
B|----------------------------------------------|
G|-9-9-9-11-11-11-12-12-12-12-7-7-7-5-5-5-4-4-4-|
D|-x x x x x x x x x x x x x x x x x x x x x x -
A|-7-7-7--9--9--9-10-10-10-10-5-5-5-3-3-3-2-2-2-|
E|----------------------------------------------|

Pre-chorus:
E|---------------------------------------------------------------------|
B|---------------------------------------------------------------------|
G|-9-9---7-7---5-5---------9-9---7-7---5-5---------12v-----------------|
D|-9-9---7-7---5-5---5-5---9-9---7-7---5-5---5-5-----------------------|
A|-7-7---5-5---3-3---5-5---7-7---5-5---3-3---5-5-----------------------|
E|-------------------3-3---------------------3-3-----------------------|

E|---------------------------------------------|
B|---------------------------------------------|
G|-9-9-9-9-11-11-11-11-12-12-12-12-16-16-16-16-|
D|-x x x x x x x x x x x x x x x x x x x x x x-
A|-7-7-7-7--9--9--9--9-10-10-10-10-14-14-14-14-|
E|---------------------------------------------|

Chorus:
E|-----------------------------------------------------------------|
B|-----------------------------------------------------------------|
G|---------------------------------7-7-7-7-7-7-7-7-7-7-7-7-7-7-7-7-|
D|-5-5-5-5-5-5-5-5-5-5-5-5-5-5-5-5-7-7-7-7-7-7-7-7-7-7-7-7-7-7-7-7-|
A|-5-5-5-5-5-5-5-5-5-5-5-5-5-5-5-5-5-5-5-5-5-5-5-5-5-5-5-5-5-5-5-5-|
E|-3-3-3-3-3-3-3-3-3-3-3-3-3-3-3-3---------------------------------|

E|-----------------------------------------------------------------|
B|-----------------------------------------------------------------|
G|-5-5-5-5-5-5-5-5-5-5-5-5-5-5-5-5---------------------------------|
D|-5-5-5-5-5-5-5-5-5-5-5-5-5-5-5-5-5-5-5-5-5-5-5-5-5-5-5-5-5-5-x x-|
A|-3-3-3-3-3-3-3-3-3-3-3-3-3-3-3-3-5-5-5-5-5-5-5-5-5-5-5-5-5-5-x x-|
E|---------------------------------3-3-3-3-3-3-3-3-3-3-3-3-3-3-x x-|
[ Tab from: http://www.guitaretab.com/m/misc-unsigned-bands/118377.html ]
E|-----------------------------------------------------------------|
B|-----------------------------------------------------------------|
G|---------------------------------7-7-7-7-7-7-7-7-7-7-7-7-7-7-7-7-|
D|-5-5-5-5-5-5-5-5-5-5-5-5-5-5-5-5-7-7-7-7-7-7-7-7-7-7-7-7-7-7-7-7-|
A|-5-5-5-5-5-5-5-5-5-5-5-5-5-5-5-5-5-5-5-5-5-5-5-5-5-5-5-5-5-5-5-5-|
E|-3-3-3-3-3-3-3-3-3-3-3-3-3-3-3-3---------------------------------|

E|-----------------------------------------------------------------|
B|-----------------------------------------------------------------|
G|-5-5-5-5-5-5-5-5-5-5-5-5-5-5-5-5---------------------------------|
D|-5-5-5-5-5-5-5-5-5-5-5-5-5-5-5-5-5-5-5-5-5-5-5-5-5-5-5-5-5-5-x x-|
A|-3-3-3-3-3-3-3-3-3-3-3-3-3-3-3-3-5-5-5-5-5-5-5-5-5-5-5-5-5-5-x x-|
E|---------------------------------3-3-3-3-3-3-3-3-3-3-3-3-3-3-x x-|

E|-----------------------------------------------------------------|
B|-----------------------------------------------------------------|
G|---------------------------------7-7-7-7-7-7-7-7-7-7-7-7-7-7-7-7-|
D|-5-5-5-5-5-5-5-5-5-5-5-5-5-5-5-5-7-7-7-7-7-7-7-7-7-7-7-7-7-7-7-7-|
A|-5-5-5-5-5-5-5-5-5-5-5-5-5-5-5-5-5-5-5-5-5-5-5-5-5-5-5-5-5-5-5-5-|
E|-3-3-3-3-3-3-3-3-3-3-3-3-3-3-3-3---------------------------------|

E|-----------------------------------------------------------------|
B|-----------------------------------------------------------------|
G|-5-5-5-5-5-5-5-5-5-5-5-5-5-5-5-5---------------------------------|
D|-5-5-5-5-5-5-5-5-5-5-5-5-5-5-5-5-5-5-5-5-5-5-5-5-5-5-5-5-5-5-5-5-|
A|-3-3-3-3-3-3-3-3-3-3-3-3-3-3-3-3-5-5-5-5-5-5-5-5-5-5-5-5-5-5-5-5-|
E|---------------------------------3-3-3-3-3-3-3-3-3-3-3-3-3-3-3-3-|

Verse 2:
E|----------------------------------------------------------|
B|----------------------------------------------------------|
G|-9----------------9-9---7-7---5-5-------------------------|
D|-9----------------9-9---7-7---5-5-5-5-5-5-5-5-5-5-5-5-5-5-|
A|-7----------------7-7---5-5---3-3-3-3-3-3-3-3-3-3-3-3-3-3-|
E|----------------------------------------------------------|
                                    * * * * * * * * * * * *

E|-----------------------------------------------|
B|-----------------------------------------------|
G|-9-----9-9-7-----7-7-5-----5-5-----------------|
D|-9-9-9-9-9-7-7-7-7-7-5-5-5-5-5-5-5-5-5-5-5-5-5-|
A|-7-7-7-7-7-5-5-5-5-5-3-3-3-3-3-5-5-5-5-5-5-5-5-|
E|-------------------------------3-3-3-3-3-3-3-3-|
     * *       * *       * *

E|-----------------------------------------------------|
B|-----------------------------------------------------|
G|-9-----9-9-7-----7-7-5-5-5-5-5-5-5-5-5-5-5-5-5-5-5-5-|
D|-9-9-9-9-9-7-7-7-7-7-5-5-5-5-5-5-5-5-5-5-5-5-5-5-5-5-|
A|-7-7-7-7-7-5-5-5-5-5-3-3-3-3-3-3-3-3-3-3-3-3-3-3-3-3-|
E|-----------------------------------------------------|
     * *       * *

E|-------------------|
B|-------------------|
G|-7-7-7-7-7-7-7-7-7-|
D|-7-7-7-7-7-7-7-7-7-|
A|-5-5-5-5-5-5-5-5-5-|
E|-------------------|

Repeat riff 2

Repeat pre-chorus

Chorus:
E|-----------------------------------------------------------------|
B|-----------------------------------------------------------------|
G|---------------------------------7-7-7-7-7-7-7-7-7-7-7-7-7-7-7-7-|
D|-5-5-5-5-5-5-5-5-5-5-5-5-5-5-5-5-7-7-7-7-7-7-7-7-7-7-7-7-7-7-7-7-|
A|-5-5-5-5-5-5-5-5-5-5-5-5-5-5-5-5-5-5-5-5-5-5-5-5-5-5-5-5-5-5-5-5-|
E|-3-3-3-3-3-3-3-3-3-3-3-3-3-3-3-3---------------------------------|

E|-----------------------------------------------------------------|
B|-----------------------------------------------------------------|
G|-5-5-5-5-5-5-5-5-5-5-5-5-5-5-5-5---------------------------------|
D|-5-5-5-5-5-5-5-5-5-5-5-5-5-5-5-5-5-5-5-5-5-5-5-5-5-5-5-5-5-5-x x-|
A|-3-3-3-3-3-3-3-3-3-3-3-3-3-3-3-3-5-5-5-5-5-5-5-5-5-5-5-5-5-5-x x-|
E|---------------------------------3-3-3-3-3-3-3-3-3-3-3-3-3-3-x x-|

E|-----------------------------------------------------------------|
B|-----------------------------------------------------------------|
G|---------------------------------7-----------------------x x x x-|
D|-5-5-5-5-5-5-5-5-5-5-5-5-5-5-5-5-7-----------------------x x x x-|
A|-5-5-5-5-5-5-5-5-5-5-5-5-5-5-5-5-5-----------------------x x x x-|
E|-3-3-3-3-3-3-3-3-3-3-3-3-3-3-3-3-------------------------x x x x-|

E|-----------------------------------------------------------------|
B|-----------------------------------------------------------------|
G|-5-5-5-5-5-5-5-5-5-5-5-5-5-5-5-5---------------------------------|
D|-5-5-5-5-5-5-5-5-5-5-5-5-5-5-5-5-5-5-5-5-5-5-5-5-5-5-5-5-5-5-x x-|
A|-3-3-3-3-3-3-3-3-3-3-3-3-3-3-3-3-5-5-5-5-5-5-5-5-5-5-5-5-5-5-x x-|
E|---------------------------------3-3-3-3-3-3-3-3-3-3-3-3-3-3-x x-|

E|-----------------------------------------------------------------|
B|-----------------------------------------------------------------|
G|---------------------------------7-7-7-7-7-7-7-7-7-7-7-7-7-7-7-7-|
D|-5---5---5---5---5---5---5---5---7-7-7-7-7-7-7-7-7-7-7-7-7-7-7-7-|
A|-5---5---5---5---5---5---5---5---5-5-5-5-5-5-5-5-5-5-5-5-5-5-5-5-|
E|-3---3---3---3---3---3---3---3-----------------------------------|

E|-----------------------------------------------------------------|
B|-----------------------------------------------------------------|
G|-5-5-5-5-5-5-5-5-5-5-5-5-5-5-5-5---------------------------------|
D|-5-5-5-5-5-5-5-5-5-5-5-5-5-5-5-5-5-5-5-5-5-5-5-5-5-5-5-5-5-5-5-5-|
A|-3-3-3-3-3-3-3-3-3-3-3-3-3-3-3-3-5-5-5-5-5-5-5-5-5-5-5-5-5-5-5-5-|
E|---------------------------------3-3-3-3-3-3-3-3-3-3-3-3-3-3-3-3-|

Outro:
E|------------------------|
B|------------------------|
G|-12~----7~----5~----12~-|
D|-12~----7~----5~----12~-|
A|-10~----5~----3~----10~-|
E|------------------------|
Related for Ef-el - Die Beter Boodskap tab