Song name
# A B C D E F G H I J K L M N O P Q R S T U V W X Y Z

Misc Unsigned Bands - Ef-el - Die Idee Van tab

Ef-El  Die ide van:

Intro:
E|--------------------------------------------------------|
B|--------------------------------------------------------|
G|-11-11-11-11-11-11-11-11-11-11--------------------------|
D|-11-11-11-11-11-11-11-11-11-11-9-9-9-9-9-11-11-11-11-11-|   x2
A|--9--9--9--9--9--9--9--9--9--9-9-9-9-9-9-11-11-11-11-11-|
E|-------------------------------7-7-7-7-7--9--9--9--9--9-|

E|-----------------------------------------|
B|-----------------------------------------|
G|-8-8-8-8-8-8-8-8-8-8-4-4-4-4-4-6-6-6-6-6-|
D|-8-8-8-8-8-8-8-8-8-8-4-4-4-4-4-6-6-6-6-6-|   x2
A|-6-6-6-6-6-6-6-6-6-6-2-2-2-2-2-4-4-4-4-4-|
E|-----------------------------------------|

Verse 1:
Clean:
E|------------------------------------------|
B|----------2-----------------------------7-|
G|-----------------6----------8-------------|
D|---4---4--------------8---8-------6---6---|   x2
A|-2------------4-----6-----------4---------|
E|------------------------------------------|

W/Distortion:
E|-----------------------------------------------------------------|
B|-----------------------------------------------------------------|
G|-4-------4-----4-----4---6---6---8-------8-----6-----6---6-6-6-6-|
D|-4-4-4-4-4-4-4-4-4-4-4-4-6-6-6-6-8-8-8-8-8-8-8-6-6-6-6-6-6-6-6-6-|
A|-2-2-2-2-2-2-2-2-2-2-2-2-4-4-4-4-6-6-6-6-6-6-6-4-4-4-4-4-4-4-4-4-|
E|-----------------------------------------------------------------|
     * * *   * *   * *   *   *   *   * * *   * *   * *   *
E|---------------------------------------------------------------|
B|---------------------------------------------------------------|
G|-4-------4-----4-----4---6---6---8-------8-----6-----6-6-6-6-6-|
D|-4-4-4-4-4-4-4-4-4-4-4-4-6-6-6-6-8-8-8-8-8-8-8-6-6-6-6-6-6-6-6-|
A|-2-2-2-2-2-2-2-2-2-2-2-2-4-4-4-4-6-6-6-6-6-6-6-4-4-4-4-4-4-4-4-|
E|---------------------------------------------------------------|
     * * *   * *   * *   *   *   *   * * *   * *   * *
Chorus:    Guitar 1:
E|-----------------------------------------------------------------|
B|-----------------------------------------------------------------|
G|-4-4-4-4-4-4-4-4-4-4-4-4-4-4-4-4-6-6-6-6-6-6-6-6-6-6-6-6-6-6-6-6-|
D|-4-4-4-4-4-4-4-4-4-4-4-4-4-4-4-4-6-6-6-6-6-6-6-6-6-6-6-6-6-6-6-6-|
A|-2-2-2-2-2-2-2-2-2-2-2-2-2-2-2-2-4-4-4-4-4-4-4-4-4-4-4-4-4-4-4-4-|
E|-----------------------------------------------------------------|

E|-----------------------------------------------------------------|
B|-----------------------------------------------------------------|
G|-8-8-8-8-8-8-8-8-8-8-8-8-8-8-8-8-6-6-6-6-6-6-6-6-6-6-6-6-6-6-6-6-|
D|-8-8-8-8-8-8-8-8-8-8-8-8-8-8-8-8-6-6-6-6-6-6-6-6-6-6-6-6-6-6-6-6-|
A|-6-6-6-6-6-6-6-6-6-6-6-6-6-6-6-6-4-4-4-4-4-4-4-4-4-4-4-4-4-4-4-4-|
E|-----------------------------------------------------------------|

E|-----------------------------------------------------------------|
B|-----------------------------------------------------------------|
G|-4-4-4-4-4-4-4-4-4-4-4-4-4-4-4-4-6-6-6-6-6-6-6-6-6-6-6-6-6-6-6-6-|
D|-4-4-4-4-4-4-4-4-4-4-4-4-4-4-4-4-6-6-6-6-6-6-6-6-6-6-6-6-6-6-6-6-|
A|-2-2-2-2-2-2-2-2-2-2-2-2-2-2-2-2-4-4-4-4-4-4-4-4-4-4-4-4-4-4-4-4-|
E|-----------------------------------------------------------------|

E|-----------------------------------------------------------------|
B|-----------------------------------------------------------------|
G|-8-8-8-8-8-8-8-8-8-8-8-8-8-8-8-8-6-6-6-6-6-6-6-6-6-6-6-6-6-6-6-6-|
D|-8-8-8-8-8-8-8-8-8-8-8-8-8-8-8-8-6-6-6-6-6-6-6-6-6-6-6-6-6-6-6-6-|
A|-6-6-6-6-6-6-6-6-6-6-6-6-6-6-6-6-4-4-4-4-4-4-4-4-4-4-4-4-4-4-4-4-|
E|-----------------------------------------------------------------|
Guitar 2:  luister mooi...
E|--------------------------------|
B|--------14-14----14-14----14v---|
G|--------------------------------|
D|--------------------------------|   x2
A|--------------------------------|
E|--------------------------------|

E|-----------------------------------|
B|-------14-14-------14-14-------14v-|
G|-10h11-------10h11-------10h11-----|
D|-----------------------------------|   x2
A|-----------------------------------|
E|-----------------------------------|

E|--------------------------------|
B|--------14-14----14-14----14v---|
G|--------------------------------|
D|--------------------------------|   x2
A|--------------------------------|
E|--------------------------------|

E|-----------------------------------|
B|-------14-14-------14-14-------14v-|
G|-10h11-------10h11-------10h11-----|
D|-----------------------------------|   x2
A|-----------------------------------|
E|-----------------------------------|

Verse 2
E|-----------------------------------------------------------------|
B|-----------------------------------------------------------------|
G|-----------------------------------------------------------------|
D|-4-4-4-4-4-4-4-4-4-4-4-4-6-6-6-6-8-8-8-8-8-8-8-8-6-6-6-6-6-6-6-6-|
A|-2-2-2-2-2-2-2-2-2-2-2-2-4-4-4-4-6-6-6-6-6-6-6-6-4-4-4-4-4-4-4-4-|
E|-----------------------------------------------------------------|
   * * * * * * * * * * * * * * * * * * * * * * * * * * * * * * * *
E|--------------------------------------------------------|
B|---------2------------2-----------------------------7---|
G|-----4------------4---------6-----8---8--------6------6-|
D|---4---4---4----4---4-----------8---8---8----6---6------|
A|-2------------2----------4----6------------4------------|
E|--------------------------------------------------------|
   * *   *      * *   *         * *   *      * *   *

E|------------------------------------------------------------|
B|---------2------------2-------------------------------------|
G|-----4------------4---------6-----8---8---------6-6-6-6-6-6-|
D|---4---4---4----4---4-----------8---8---8---6-6-6-6-6-6-6-6-|
A|-2------------2----------4----6-------------4-4-4-4-4-4-4-4-|
E|------------------------------------------------------------|
   * *   *      * *   *         * *   *       * *

Repeat chorus

Solo:
Rhythm (Guitar 2)
E|-----------------------------------------------------------------|
B|-----------------------------------------------------------------|
G|-4-4-4-4-4-4-4-4-4-4-4-4-4-4-4-4-8-8-8-8-8-8-8-8-4-4-4-4-4-4-4-4-|
D|-4-4-4-4-4-4-4-4-4-4-4-4-4-4-4-4-8-8-8-8-8-8-8-8-4-4-4-4-4-4-4-4-|  x2
A|-2-2-2-2-2-2-2-2-2-2-2-2-2-2-2-2-6-6-6-6-6-6-6-6-2-2-2-2-2-2-2-2-|
E|-----------------------------------------------------------------|

Bridge:
Clean:
E|------------------------------------------|
B|----------2-----------------------------7-|
G|-----------------6----------8-------------|
D|---4---4--------------8---8-------6---6---|   x2
A|-2------------4-----6-----------4---------|
E|------------------------------------------|

W/Distortion:
E|-------------------------------------------------------------|
B|-------------------------------------------------------------|
G|-8-8-8-8-8-8-8-8-8-8-4-4-4-4-4-6-6-6-6-6-8-8-8-8-8-8-8-8-8-8-|
D|-8-8-8-8-8-8-8-8-8-8-4-4-4-4-4-6-6-6-6-6-8-8-8-8-8-8-8-8-8-8-|
A|-6-6-6-6-6-6-6-6-6-6-2-2-2-2-2-4-4-4-4-4-6-6-6-6-6-6-6-6-6-6-|
E|-------------------------------------------------------------|

Chorus:   Guitar 1:
E|-----------------------------------------------------------------|
B|-----------------------------------------------------------------|
G|-4~~~----------------------------6-6-6-6-6-6-6-6-6-6-6-6-6-6-6-6-|
D|-4~~~----------------------------6-6-6-6-6-6-6-6-6-6-6-6-6-6-6-6-|
A|-2~~~----------------------------4-4-4-4-4-4-4-4-4-4-4-4-4-4-4-4-|
E|-----------------------------------------------------------------|

E|-----------------------------------------------------------------|
B|-----------------------------------------------------------------|
G|-8-8-8-8-8-8-8-8-8-8-8-8-8-8-8-8-6-6-6-6-6-6-6-6-6-6-6-6-6-6-6-6-|
D|-8-8-8-8-8-8-8-8-8-8-8-8-8-8-8-8-6-6-6-6-6-6-6-6-6-6-6-6-6-6-6-6-|
A|-6-6-6-6-6-6-6-6-6-6-6-6-6-6-6-6-4-4-4-4-4-4-4-4-4-4-4-4-4-4-4-4-|
E|-----------------------------------------------------------------|

E|-----------------------------------------------------------------|
B|-----------------------------------------------------------------|
G|-4-4-4-4-4-4-4-4-4-4-4-4-4-4-4-4-6-6-6-6-6-6-6-6-6-6-6-6-6-6-6-6-|
D|-4-4-4-4-4-4-4-4-4-4-4-4-4-4-4-4-6-6-6-6-6-6-6-6-6-6-6-6-6-6-6-6-|
A|-2-2-2-2-2-2-2-2-2-2-2-2-2-2-2-2-4-4-4-4-4-4-4-4-4-4-4-4-4-4-4-4-|
E|-----------------------------------------------------------------|

E|-----------------------------------------------------------------|
B|-----------------------------------------------------------------|
G|-8-8-8-8-8-8-8-8-8-8-8-8-8-8-8-8-6-6-6-6-6-6-6-6-6-6-6-6-6-6-6-6-|
D|-8-8-8-8-8-8-8-8-8-8-8-8-8-8-8-8-6-6-6-6-6-6-6-6-6-6-6-6-6-6-6-6-|
A|-6-6-6-6-6-6-6-6-6-6-6-6-6-6-6-6-4-4-4-4-4-4-4-4-4-4-4-4-4-4-4-4-|
E|-----------------------------------------------------------------|
Guitar 2:
E|------------------|
B|-14v--------------|
G|------------------|
D|------------------|
A|------------------|
E|------------------|

E|-----------------------------------|
B|-------14-14-------14-14-------14v-|
G|-10h11-------10h11-------10h11-----|
D|-----------------------------------|   x3
A|-----------------------------------|
E|-----------------------------------|

E|--------------------------------|
B|--------14-14----14-14----14v---|
G|--------------------------------|
D|--------------------------------|   x2
A|--------------------------------|
E|--------------------------------|

E|-----------------------------------|
B|-------14-14-------14-14-------14v-|
G|-10h11-------10h11-------10h11-----|
D|-----------------------------------|   x2
A|-----------------------------------|
E|-----------------------------------|

Outro:
Guitar 1:             Guitar 2:
E|----                E|---------------------------|
B|----                B|-14v----12v----11v---7v----|
G|-4~-                G|---------------------------|
D|-4~-                D|---------------------------|
A|-2~-                A|---------------------------|
E|----                E|---------------------------|
Tap to rate this tab
# A B C D E F G H I J K L M N O P Q R S T U V W X Y Z