Guitaretab - guitar tabs
Song name
# A B C D E F G H I J K L M N O P Q R S T U V W X Y Z

Misc Unsigned Bands - Ef-el - Lafaard tab

Sorry, it's the third time that i'm submitting this tab but due to temporary dumbness i 
a little mistake in the bridge. This is the correct version, really it's not a huge 
but it could be critical

Ef-El  Lafaard:

Intro:
Clean:   luister na song vir strumming
E|-------------------------------------------------------------------|
B|-------------------------------------------------------------------|
G|-10-10-10-10-10-10-11-11-11-11-11-11-10-10-10-10-10-10-11-11-11-11-|
D|-11-11-11-11-11-11-11-11-11-11-11-11-11-11-11-11-11-11-11-11-11-11-|
A|--8--8--8--8--8--8--9--9--9--9--9--9--8--8--8--8--8--8--9--9--9--9-|
E|-------------------------------------------------------------------|

E|---------------------------------------------------------------|
B|---------------------------------------------------------------|
G|-3-4-4-4-4-4-4-4-4-4-4-4-4-11-11-11-11-11-11-10-10-10-10-10-10-|
D|-3-4-4-4-4-4-4-4-4-4-4-4-4-x x x x x x x x x x x x x x x x x x-|
A|-1-2-2-2-2-2-2-2-2-2-2-2-2--9--9--9--9--9--9--8--8--8--8--8--8-|
E|---------------------------------------------------------------|

E|-------------------------------------------------------------------|
B|-------------------------------------------------------------------|
G|-10-10-10-10-10-10-11-11-11-11-11-11-10-10-10-10-10-10-11-11-11-11-|
D|-11-11-11-11-11-11-11-11-11-11-11-11-11-11-11-11-11-11-11-11-11-11-|
A|--8--8--8--8--8--8--9--9--9--9--9--9--8--8--8--8--8--8--9--9--9--9-|
E|-------------------------------------------------------------------|

W/Distortion:
E|---------------------------------------------------------------|
B|---------------------------------------------------------------|
G|-3-4-4-4-4-4-4-4-4-4-4-4-4-11-11-11-11-11-11-10-10-10-10-10-10-|
D|-3-4-4-4-4-4-4-4-4-4-4-4-4-x x x x x x x x x x x x x x x x x x-|
A|-1-2-2-2-2-2-2-2-2-2-2-2-2--9--9--9--9--9--9--8--8--8--8--8--8-|
E|---------------------------------------------------------------|

Verse:
E|-----------------------------------------------------------|
B|-----------------------------------------------------------|
G|-----------------------------------------------------------|
D|-1~~~----------6-6-6-8-8-8---9---9---9---9---9---9---9---9-|   x2
A|-1~~~----------x x x x x x---9---9---9---9---9---9---9---9-|
E|---------------4-4-4-6-6-6---7---7---7---7---7---7---7---7-|

E|-----------------------------------------------------|
B|-----------------------------------------------------|
G|-11-11-11-11-11-11-10-10-10-10-10-10-----------------|
D|-x x x x x x x x x x x x x x x x x x---9---9---9---9-|
A|--9--9--9--9--9--9--8--8--8--8--8--8---9---9---9---9-|
E|---------------------------------------7---7---7---7-|

Pre-Chorus:
E|-------------------------------------------------|
B|-------------------------------------------------|
G|-11-11-11-11-11-11-11-11-18-18-18-18-18-18-18-18-|
D|-x x x x x x x x x x x x x x x x x x x x x x x x-
A|--9--9--9--9--9--9--9--9-16-16-16-16-16-16-16-16-|
E|-------------------------------------------------|

Chorus:   luister na song vir strumming
E|-------------------------------------------------|
B|-------------------------------------------------|
G|-------------------------------------------------|
D|-4-4-4-4-4-4-4-4-4-4-4-4-4-4-4-4-4-4-4-4-4-4-4-4-|
A|-4-4-4-4-4-4-4-4-4-4-4-4-4-4-4-4-4-4-4-4-4-4-4-4-|
E|-2-2-2-2-2-2-2-2-2-2-2-2-2-2-2-2-2-2-2-2-2-2-2-2-|

E|---------------------------------------------------|
B|---------------------------------------------------|
G|-6-6-6-6-6-6-6-6-6-6-6-6-4-4-4-4-4-4-8-8-8-8-6-6-6-|
D|-6-6-6-6-6-6-6-6-6-6-6-6-4-4-4-4-4-4-8-8-8-8-6-6-6-|
A|-4-4-4-4-4-4-4-4-4-4-4-4-2-2-2-2-2-2-6-6-6-6-4-4-4-|
E|---------------------------------------------------|

E|-------------------------------------------------|
B|-------------------------------------------------|
G|-------------------------------------------------|
D|-4-4-4-4-4-4-4-4-4-4-4-4-4-4-4-4-4-4-4-4-4-4-4-4-|
A|-4-4-4-4-4-4-4-4-4-4-4-4-4-4-4-4-4-4-4-4-4-4-4-4-|
E|-2-2-2-2-2-2-2-2-2-2-2-2-2-2-2-2-2-2-2-2-2-2-2-2-|
[ Tab from: http://www.guitaretab.com/m/misc-unsigned-bands/118380.html ]
E|----------------------------------------|
B|----------------------------------------|
G|-6-6-6-6-6-6-6-6-6-6-6-6-4-4-4-4-4-3----|
D|-6-6-6-6-6-6-6-6-6-6-6-6-4-4-4-4-4-3-4~-|
A|-4-4-4-4-4-4-4-4-4-4-4-4-2-2-2-2-2-1-4~-|
E|-------------------------------------2~-|

Repeat verse

Repeat chorus

Bridge:
Clean:
E|------------------------------------------------------------------|
B|------------------------------------------------------------------|
G|----------------------------------------11-----11-----13-----13---|
D|----8-------8--------8--------------------11-----11-----13-----13-|
A|-6----9--6-----9--6----9-6-6-6-6h8-8/9------9------11-----11------|
E|------------------------------------------------------------------|

E|------------------------------------------------------------------|
B|------------------------------------------------------------------|
G|----------------------------------------11-----11-----13-----13---|
D|----8-------8--------8--------------------11-----11-----13-----13-|
A|-6----9--6-----9--6----9-6-6-6-6h8-8/9------9------11-----11------|
E|------------------------------------------------------------------|

W/Distrotion:
E|---------------------------|
B|---------------------------|
G|---------------------------|
D|-1-1-1-1-1---1-1-1-1-1-1-4-|   x2
A|-1-1-1-1-1---1-1-1-1-1-1-4-|
E|---------------------------|
   * * * * *   * * * * * *
E|-----------------------------------------------------------|
B|-----------------------------------------------------------|
G|-------------------------------------------4-4-4-4-4-4-4-4-|
D|-4-4---4-6-4---4-4---4-6-4---4-4---4-6-4---4-4-4-4-4-4-4-4-|
A|-2-2---2-4-2---2-2---2-4-2---2-2---2-4-2---2-2-2-2-2-2-2-2-|
E|-----------------------------------------------------------|

Chorus:   luister na song vir strumming
E|--------------------------------------|
B|--------------------------------------|
G|--------------------------------------|
D|-4~~~-------x x x x-4~~~--------------|
A|-4~~~-------x x x x-4~~~--------------|
E|-2~~~-------x x x x-2~~~--------------|

E|---------------------------------------------------|
B|---------------------------------------------------|
G|-6-6-6-6-6-6-6-6-6-6-6-6-4-4-4-4-4-4-8-8-8-8-6-6-6-|
D|-6-6-6-6-6-6-6-6-6-6-6-6-4-4-4-4-4-4-8-8-8-8-6-6-6-|
A|-4-4-4-4-4-4-4-4-4-4-4-4-2-2-2-2-2-2-6-6-6-6-4-4-4-|
E|---------------------------------------------------|

E|-------------------------------------------------|
B|-------------------------------------------------|
G|-------------------------------------------------|
D|-4-4-4-4-4-4-4-4-4-4-4-4-4-4-4-4-4-4-4-4-4-4-4-4-|
A|-4-4-4-4-4-4-4-4-4-4-4-4-4-4-4-4-4-4-4-4-4-4-4-4-|
E|-2-2-2-2-2-2-2-2-2-2-2-2-2-2-2-2-2-2-2-2-2-2-2-2-|

E|-------------------------------------------------|
B|-------------------------------------------------|
G|-6-6-6-6-6-6-6-6-6-6-6-6-4-4-4-4-4-4-4-4-4-4-4-4-|
D|-6-6-6-6-6-6-6-6-6-6-6-6-4-4-4-4-4-4-4-4-4-4-4-4-|
A|-4-4-4-4-4-4-4-4-4-4-4-4-2-2-2-2-2-2-2-2-2-2-2-2-|
E|-------------------------------------------------|

Solo #1:
E|----------------------------------------------------------------------|
B|-7-7-6-2v---7-7-6-2-2-2-2h4-2v---2-2---2---------4-4-4-4-4-4-7-7-4-2--|v
G|-------------------------------------3---3-3-3-3----------------------|
D|----------------------------------------------------------------------|
A|----------------------------------------------------------------------|
E|----------------------------------------------------------------------|

E|----------------------------------------------------------------------|
B|-7-7-6-2v---7-7-6-2-2-2-2h4-2v---2-2---2---------4-4-4-4-4-4-7-7-4-2--|v
G|-------------------------------------3---3-3-3-3----------------------|
D|----------------------------------------------------------------------|
A|----------------------------------------------------------------------|
E|----------------------------------------------------------------------|

Solo #2:
Rhythm:    vinnige op-en-af strumming
E|----------------------------------------|
B|----------------------------------------|
G|---------6-     -4-     ---------6------|
D|-4-     -6- x16 -4- x16 -4-     -6- x16-|
A|-4- x32 -4-     -2-     -4- x32 -4------|
E|-2-             ---------2-     --------|

Outro:
E|----------------------------|
B|-4-3-----4-3-----4-3--------|
G|-4-3-4---4-3-4---4-3-4---4~-|
A|-2-1-4---2-1-4---2-1-4---4~-|
E|-----2-------2-------2---2~-|
Related for Ef-el - Lafaard tab